» » »

Cradle Of Filth, The Rape And Ruin Of Angels Tabs (ver.1)

Artists:  A B C D E F G H I J K L M N O P Q R S T U V W X Y Z # 

The Rape And Ruin Of Angels Tabs (ver.1)

Cradle Of Filth Tabs
 Rating:
4/5 (4 votes)
The Rape And Ruin Of Angels lessons Tabs too difficult? Try these video lessons and learn fast
                1. Note that there may be mistakes, and I may play some parts differently
   from others. All corrections and suggestions are welcome.

2. As always with Cradle of Filth songs, there are keyboard intros
   and interludes. I have tried my best to capture the original
   sound with the guitar.

3. All the symbols used in this tablature:

pm: palm mute
* : play many times/ play the number of times mentioned
/ : slide
h : hammer on
p : pull off
+ : then (play the next part)

4. For those parts played more than once, please listen to the song itself.
   It should be simple to figure out how many times you need to play the
   part. And it goes the same for the case when the guitar plays thrills.

Tune down 1 step.

1. Intro guitar riff I. Fast up and down strokes mandatory...
a.        b.		     c.
---------|------------------|------|
---------|------------------|------|
---------|------------------|------|
--3-3-3--|--2*-2h3p2-5p3p2--|--2*--|
--1-1-1--|------------------|------|
---------|------------------|------|
Riff structure: (a + b * 3 + c) * 4 + a

2. Intro guitar riff II.
a.		   b.	  c.
------------------|------|---------|
------------------|------|---------|
------------------|------|--3-3-3--|
------------------|------|--1-1-1--|
--0*-0h1p0-3p1p0--|--0*--|---------|
------------------|------|---------|
Riff structure: (a * 3 + b + c) * 2

3. Intro guitar riff III.
a.		   b.     c.
------------------|------|---------|
------------------|------|---------|
------------------|------|---------|
------------------|------|--3-3-3--|
------------------|------|--1-1-1--|
--0*-0h1p0-3p1p0--|--0*--|---------|
Riff structure: (a * 3 + b + c) * 2

4. Play 2 and 3 again.

5. Keyboard section I.
a.				 b.
--------------------------------|---------------------------|
--------------------------------|---------------------------|
--7-----9-------10------9-------|--7------9-----------------|
----10-----10------10-----10----|----10-----10---10-9h10p9--|
-------0------0-------0------0--|-------0------0------------|
--------------------------------|---------------------------|
Riff structure: (a * 3 + b) * 2

6. Keyboard section II + guitar.
a.			   b.
--------------------------|-----------------------------|
--------------------------|-----------------------------|
--------------------------|-----------------------------|
--------------------------|-----------------------------|
--------------8--8--9--8--|--7--7--7--9--9--8--8--9--8--|
--5--5--7--7--6--6--7--6--|--5--5-----7--7--6--6--7--6--|
Play this along with 5.

7.
a.			b.
-----------------------|------------------------|
-----------------------|------------------------|
-----------------------|-------------7*---------|
--10*-9*-10*-9*-7*-9*--|--10*-9*-10*----10*-9*--|
-----------------------|------------------------|
-----------------------|------------------------|
Riff Structure: (a + b) * 2

8.
a.  			   b.
--------------------------|------------------------------|
--------------------------|------------------------------|
---------7*-9*-7*---------|--9*-7*-9*-7*-9*-7h9p7-9p7h9--|
--9*-10*----------10*-9*--|------------------------------|
--------------------------|------------------------------|
--------------------------|------------------------------|
Riff Structure: (a + b) * 2

9.
a.	       b.             c.
--------------|--------------|-------------------|
--------------|--------------|-------------------|
--------------|--------------|----4*-3*-1h3p1-0--|
--------------|--4--7--6--4--|--4----------------|
--6--9--8--6--|--2--5--4--2--|--2----------------|
--4--7--6--4--|--------------|-------------------|
Riff Structure: (a * 2) + b + c

10.
------------------------|
------------------------|
------------------------|
--------6*-9*-----------|
-----6*-------9*--------|
--4*-------------7*-6*--|
Play this twice.

11.
---------------------------|-----------------------|
---------------------------|-----------------------|
--------4*-7*-6*-4*-6*-7*--|--------4*-3*-1h3p1----|
-----4*--------------------|-----4*-------------4--|
--2*-----------------------|--2*-------------------|
---------------------------|-----------------------|

12.
a.
---------------------------------------|
---------------------------------------|
---------------------------------------|
--------0-----------------------0------|
--3-2-3---3-2-0-2-0---0-2-3-2-3---3-2--|
--------------------3------------------|

b.
-----------------|
--6-----6--------|
--5-----5--------|
--3-----3--------|
----0000---0000--|
-----------------|
    pm...   pm...

c.
-----------------|
--5-----5--------|
--4-----4--------|
--2-----2--------|
----0000---0000--|
-----------------|
    pm...   pm...

Riff structure: (a + b + a + c) * 2

13.
a.	       b.		     c.
--------------|---------------------|--------------------------|
--------------|---------------------|--------------------------|
--------------|-----7---------------|--------------------------|
--2-----------|--7--5---------------|--7--7*-5*----------------|
--0--3--5--8--|--5-----8-7-8-7-5-3--|--5--------8*-7*-8*-7*----|
-----1--3--6--|---------------------|-----------------------8--|
Riff structure: (a + b + a + c) * 2

14. Play 9, 10, and 11.

15.
a.
-----------------------------------|
-----------------------------------|
-----------------------------------|
-----------------------------------|
--0-3-2-3-0-3-2-3-0-3-2-3-0-3-2-3--|
-----------------------------------|

b.
-----------------------------------|
-----------------------------------|
-----------------------------------|
-----------------------------------|
--4-7-6-7-4-7-6-7-4-7-6-7-4-7-6-7--|
-----------------------------------|

c.
-----------------------------------|
-----------------------------------|
-----------------------------------|
------------------------------4----|
--4-7-6-7-4-7-6-7-4-7-6-7-4-7---6--|
-----------------------------------|

d.
-----------------------------------|
-----------------------------------|
--------------2--------------------|
--2-5-4-5-2-5---4------------------|
------------------2-5-4-5-2-5-4-5--|
-----------------------------------|

e.
-----------------------------------|
-----------------------------------|
-----------------------------------|
--------------------------4--------|
--4-7-6-7-4-7-6-7-4-7-6-7---7-6-7--|
-----------------------------------|

f.
-----------------------------------|
-----------------------------------|
--------------2--------------------|
--2-5-4-5-2-5---4-4-7-6-7-4-7-6-7--|
-----------------------------------|
-----------------------------------|

g.
-----------------------------------|
-----------------------------------|
--------------------------6--------|
--6-9-8-9-6-9-8-9-6-9-8-9---9-8-9--|
-----------------------------------|
-----------------------------------|

h.
-----------------------------------|
-----------------------------------|
-----------------------------------|
-----------------------------------|
--0-3-2-3-0-3-2-3------------------|
------------------0-3-2-3-3-6-5-6--|

i.			    j.
---------------------------|------------|
---------------------------|------------|
---------------------------|------------|
---------------------------|----------2-|
--0-3-2-3-0-3-2-3-0-3-2-3--|--0-3-2-3-0-|
---------------------------|------------|
Riff Structure: a + b + a + c + d + e + f + g + h + i


16.
a.
---------------------|
---------------------|
--4-4-4p2h4-5-5-4-2--|
--4-4-4p2h4-5-5-4-2--|
---------------------|
---------------------|

b.		       c.
----------------------|-----|
----------------------|-----|
----------------------|-----|
---------------2-2-2--|--2--|
--5-5-5-5-5-5--0-0-0--|--0--|
--3-3-3-3-3-3---------|-----|
Riff structure: (a + b) * 4

17. Bass solo. I tabbed this for guitar so I don't have to pick up a bass
in the middle of the song... (I don't even have one...) Play this through
out the middle keyboard section (first half of it).
-----------------------------|----------------------|
-----------------------------|----------------------|
-----------------------------|----------------------|
--0-000-3-2-0----------------|-0-000-3-2-0-3-2-0----|
--------------1-111-3-3-0-3--|-------------------3--|
-----------------------------|----------------------|

-----------------------------|------------------------|
-----------------------------|------------------------|
-----------------------------|---------------5--------|
--0-000-3-2-0----------------|-0-000-3-2-0-3---2-0----|
--------------1-111-3-3-0-3--|---------------------3--|
-----------------------------|------------------------|

18. Keyboard section in the middle. What can I say? It's just great...
beautiful melodies... very gothic...
----------------|--------------------|
----------------|--------------------|
--5--5-7-9-2-4--|--5--5-7-9-9-7-5-4--|
--3--3-5-7-0-2--|--3--3-5-7-7-5-3-2--|
----------------|--------------------|
----------------|--------------------|
Play this twice.

19. Guitar part played along with 18.
-------------------------|-----------------------|
-------------------------|-----------------------|
-------------------------|-----------------------|
--/3-33-3-2-3------------|--/3-33-3-5-7-7-5-3-2--|
--------------1-11-3-33--|-----------------------|
-------------------------|-----------------------|

20. Guitar part played along with 19.
------------------------|-----------------------|
------------------------|-----------------------|
------------------------|-----------------------|
--0-000-0-2-3-----------|--0-000-0-2-3-3-2-0----|
-------------1-11-3-33--|--------------------3--|
------------------------|-----------------------|

21.
---------|
---------|
---------|
---------|
--0-2-3--|
---------|
Play this many times... how many? please listen to the song. Just keep
playing til you feel like stopping, and that should do it.

22. I don't know if this is a keyboard or an electric guitar with a clean
tone. In any case, here it is. Play this along with 20, twice.
---------------------------|---------------------------|
---------------------------|---------------------------|
---------------------------|---------------------------|
---------------------------|--------2-0----------------|
--0-000-0-2-3---3-2---2-3--|--0-000-----3---2-3---2-3--|
--------------1-----3------|--------------3-----2------|

23. This is the highlight of the key section. Excellent melodies... Very
nicely played...  Play this twice.
------------------------|-------------------------|
------------------------|-------------------------|
--5--5-4-5---5-4---4-5--|--2--/9-7-5---4-5---4-5--|
-----------3-----5------|------------5-----4------|
------------------------|-------------------------|
------------------------|-------------------------|

24. Play 16 + 16c.

25. Play this 4 times.
-------------------------------------------------|
-------------------------------------------------|
-------------------------------------------------|
----7*---7*---7*-8*-7*-5*-7*-5*-7*-10*-8*-7*-8*--|
--0----0----0------------------------------------|
-------------------------------------------------|

26. Play 15 + 15j.

27. Play this until... until you hear the angels crying and mourning in pain
------------------------|
------------------------|
------------------------|
-----4*--5*--8*--9*--9--|
-----2*--3*--6*--7*--7--|
--0---------------------|
            
Submit corrections

comments powered by Disqus
↑ Back to top | Cradle Of Filth Tabs for The Rape And Ruin Of Angels. Lyrics for acoustic guitar and electric guitar. Tablatures and chords are parodies/interpretations of the original songs. You may use it for private study, scholarship, research or language learning purposes only