>
 >
The Promise Of Fever 1

The Promise Of Fever 1 Guitar Tabs

Cradle Of Filth - The Promise Of Fever 1 chords, tabs, tablatures, lyrics

Guitar lessons | Add/correct | Request | Top 50 tabs Artists:  A B C D E F G H I J K L M N O P Q R S T U V W X Y Z 0-9

The Promise Of Fever 1 Guitar Tabs – Cradle Of Filth

CD, Sheet music, Poster

Do you like The Promise Of Fever 1? Share with your friends now
Bass TabsTabsTabs v2Tabs v3
.  - palm mute           /  - slide up to
\  - slide down to       ~  - vibrato
h  - hammer on           b  - Bend
p  - pull off            Suffixes for bend
t  - tap                 f  - full bend    h - half bend
ph - pinched harmonic    q  - quarter bend t - tap bend
*  - see comment         ^  - Hold bend    r release bend
x  - Stuccatto           ~  - vibrato bend
,  - slight palm mute    () - ghost note, sustained note
"  - tremolo note        <> - Trill

Tuning: C-G-C-F-A-D

Note: Throughout the song, there is alot of fast picking of chords.
The number of times I've written isn't exact, but should give you
an idea.


Intro Riff (1)
|--------------------------------------------------|
|--------------------------------------------------|
|--------------------------------------------------|
|--9---8-9----------------9---8-9------------------|
|--7---6-7--888888888888--7---6-7--888888889-8-7-8-|
|-----------666666666666-----------666666667-6-5-6-|
            ............           ........
Riff 2
|--------------------------------------|
|--------------------------------------|
|--------------------------------------|
|------------------------88888888888888|
|--7-7-77-7-99-9-1010-10-66666666666666|
|--5-5-55-5-77-7--8-8--8---------------|
       .    .     .      .
2nd Ending
|----------------|
|----------------|
|----------------|
|--88888888-9-11-|
|--66666666-7--9-|
|-----------7--9-|

Then Riff 1
Then Riff 2

Riff 3
|-----------------------------------------------|
|-----------------------------------------------|
|-----------------------------------------------|
|--4"----------4"---------3"-2"-3"--3"-5"-3"-2"-|
|-----2"-4"-2"---2"-4"-2"---------5"------------|
|-----------------------------------------------|

2ND Ending for Riff 3
|-----------|
|-----------|
|-----------|
|-------5---|
|--7----3-4-|
|--5------2-|

Riff 4
|------------------------------------------------------------------|
|------------------------------------------------------------------|
|------------------------------------------------------5-6----*--*-|
|------------------------------------------------------3-4---76--65|
|--44-7-6-44-6-5-3-4--44-7-6-44-------32-44-7-6-44-6-5-3-4---------|
|--22-5-4-22-4-3-1-2--22-5-4-22-542542---22-5-4-22-4-3-----7"--5"--|
   ..     ..          ..     .. ........ ..     ..

*Semi-Pinched Harmonics
Play twice, then Riff 1,2,3,4
Then Chorus Riff

Chorus(Riff 5)
|--------------------------------------|
|--------------------------------------|
|--------------------------------------|
|--7--9--10--9---7--9--10--12--12/13\12|
|--5--7---8--7---5--7---8--10--10/11\10|
|--5--7---8--7---5--7---8--10--10/11\10|

|--------------------------------------|
|--------------------------------------|
|--------------------------------------|
|--7--9--10--9---7--9--10--10/12\10-9--|
|--5--7---8--7---5--7---8---8/10\8--7--|
|--5--7---8--7---5--7---8---8/10\8--7--|
                        X

Riff 6 (A)
|----------------|
|----------------|
|----------------|
|----------------|
|----------------|
|--2---4---5---6-|

Riff 6 (B)
|----------------|
|----------------|
|----------------|
|-11--10---7-----|
|--9---8---5---8-|
|--9---8---5---6-|

Fill
|---------------|
|---------------|
|---------------|
|---------------|
|--7-7-7--6-6-6-|
|--5-5-5--4-4-4-|
   . . .  . . .
Bridge (Riff 7)
|---------------------------------------------|
|---------------------------------------------|
|---------------------------------------------|
|-------4---3---767---------------------------|
|--4----------------7-7-7-8~7-6-6-6-8~7--4-4-4|
|--2--2---2---2-----5-5-5-----4-4-4------2-2-2|
      .   .   .     . . .     . . .      . . .

Then Chorus
Play as usual once, then leave out 3rd,4th chords(both measures
 second time.
Then Riff 6 (A and B)
Then Fill and Bridge
Orchestra Break
Then Riff 1,2

End With
|--------------------|
|--------------------|
|--------------------|
|--9-----------4-----|
|--7---8---5---3---2-|
|--7---6---3---2---0-|





Comments


Popular Cradle Of Filth tabs & chords
Death Comes Ripping 1 Bass Tabs
Lovesick For Mina Bass Tabs
Queen Of Winter, Throned Bass Tabs
Byronic Man 3 Tabs
Carrion Intro Tabs
Cemetery And Sundown 1 Tabs
Dirge Inferno Tabs
Libertina Grimm Tabs
Smoke Of Her Burning Tabs
This Fetid Dank Oasis Tabs


Song lyrics



↑ Back to top | Tablatures and chords are parodies/interpretations of the original songs. You may use it for private study, scholarship, research or language learning purposes only
© 2014 AZChords.com Contact us | Privacy policy | DMCA | Add/correct tabs | Request tabs | Top 50 tabs