>
 >
The Promise Of Fever

The Promise Of Fever Guitar Tabs

Cradle Of Filth - The Promise Of Fever chords, tabs, tablatures, lyrics

Guitar lessons | Add/correct | Request | Top 50 tabs Artists:  A B C D E F G H I J K L M N O P Q R S T U V W X Y Z 0-9

The Promise Of Fever Guitar Tabs – Cradle Of Filth

CD, Sheet music, Poster

Do you like The Promise Of Fever? Share with your friends now
Bass TabsTabsTabs v2Tabs v3


+ Tuning: Concert C - Low to High  > C F A# D# G C

+ Riff 1
|--------------------------------------------------------------------------|
|--------------------------------------------------------------------------|
|---9-----8---9------------------------9-----8---9-------------------------|
|---9-----8---9-----8------------------9-----8---9-----8---------9-8-7-8---|
|---7-----6---7-----8------------------7-----6---7-----8---------9-8-7-8---|
|---7-----6---7-----6------------------7-----6---7-----6---------7-6-5-6---|

+ Riff 2
|-------------------------------------------------------------------------------------------------------------------------|
|-------------------------------------------------------------------------------------------------------------------------|
|-------------------------------------------8888888888888888-------------------------------------------88888888---9--11---|
|---7-7---7---7-7---7---9-9---9--1010--10---8888888888888888---7-7---7---7-7---7---9-9---9--1010--10---88888888---9--11---|
|---7-7---7---7-7---7---9-9---9--1010--10---6666666666666666---7-7---7---7-7---7---9-9---9--1010--10---66666666---7---9---|
|---5-5---5---5-5---5---7-7---7---8-8---8----------------------5-5---5---5-5---5---7-7---7---8-8---8--------------7---9---|
    *     *   *     *   *     *   *     *		       *     *   *     *   *     *   *     *

+ Riff 3
|----------------------------------------------------------------------------------|
|----------------------------------------------------------------------------------|
|----------------------------------------------------------------------------------|
|----------------------------------------------------------------------------------|
|---999------------------999------------------888-777-888-555-888-101010-888-777---|
|-------777-101010-999-------777-101010-999----------------------------------------|

|-------------------------------------------------------------------|
|-------------------------------------------------------------------|
|-------------------------------------------------------------------|
|---------------------------------------------7----------10-----4---|
|---999------------------999------------------7----------10-----4---|
|-------777-101010-999-------777-101010-999---5-----------8-----2---|

+ Riff 4
|------------------------------------------------------------------------------------------------------------------|
|------------------------------------------------------------------------------------------------------------------|
|------------------------------------------------------------------------------------------------------------------|
|---4-4-7-6--4-4-6-4--3/2---4-4-7-6--4-4--------------------4-4-7-6--4-4-6-4--3/2---777777--7-<6>--666666--6-<7>---|
|---4-4-7-6--4-4-6-4--3/2---4-4-7-6--4-4--------------3-2---4-4-7-6--4-4-6-4--3/2---777777---------666666----------|
|---2-2-5-4--2-2-4-2--1/2---2-2-5-4--2-2--5-4-2-4-5-4-------2-2-5-4--2-2-4-2--1/2---555555---------444444----------|
    * *      * *            * *      * *  * * * * * * * *   * *      * *  

+ Riff 5
|---------------------------------------------------------------------------------|
|---------------------------------------------------------------------------------|
|---7/9--10---9-----7/9--10---12--/13\12---7/9--10---9-----7/9--10---13--\12\10---|
|---7/9--10---9-----7/9--10---12--/13\12---7/9--10---9-----7/9--10---13--\12\10---|
|---5/7---8---7-----5/7---8---10--/11\10---5/7---8---7-----5/7---8---11--\10\-8---|
|---5/7---8---7-----5/7---8---10--/11\10---5/7---8---7-----5/7---8---11--\10\-8---|

+ Riff 6
|-------------------------------------------------------------------|
|-------------------------------------------------------------------|
|-------------------------------------------------------------------|
|-------------------------------------------------------------------|
|-------------------------------------------------------------------|
|---2---~---4---~---5---~---6---~---2---~---4---~---5---~---6---~---|

+ Riff 7
|-------------------------------------------------------------------|
|-------------------------------------------------------------------|
|--11------10-------7--------------11------10-------7---------------|
|--11------10-------7-------8------11------10-------7-------8-------|
|---9-------8-------5-------8-------9-------8-------5-------8-------|
|---9-------8-------5-------6-------9-------8-------5-------6-------|

+ Riff 8.i
|------------------------------------|
|------------------------------------|
|------------------------------------|
|---4----------------7-7-7---6-6-6---|
|---4-let-ring-------7-7-7---6-6-6---|
|---2----------------5-5-5---4-4-4---|

+ Riff 8.ii
|--------------------------------------------------------------------------|
|-----------7-~-----6-~----10--8-10----------------------------------------|
|--------------------------------------------------------------------------|
|---4-------4-~-----3-~-----7--6--7-----7-7-7--/4-~-3-~-6-6-6---/3-~-2-~---| (only on first)
|---4---4-------4-------4---------------7-7-7-----------6-6-6--------------|
|---2---2-------2-------2---------------5-5-5-----------4-4-4--------------|
        *       *       *               * * *           * * *

|--------------------------------------------------------------------------|
|-----------7-~-----6-~----10--8-10----------------------------------------|
|--------------------------------------------------------------------------|
|---4-4-4---4-~-----3-~-----7--6--7-----7-7-7--/4-~-3-~-6-6-6---/3-~-2-~---|
|---4-4-4-------4-------4---------------7-7-7-----------6-6-6--------------|
|---2-2-2-------2-------2---------------5-5-5-----------4-4-4--------------|
    * * *       *       *               * * *           * * *

+ Riff 9
|------------------------------------------------------------|
|------------------------------------------------------------|
|---9-------------------------------9------------------------|
|---9-------8-------5-------4-------9---let-ring-until-end---|
|---7-------8-------5-------3-------7------------------------|
|---7-------6-------3-------2-------7------------------------|



+ Structure

+ Riff 1
+ Riff 2
+ Riff 1
+ Riff 2
+ Riff 3 x2
+ Riff 4 x2
+ Riff 1
+ Riff 2
+ Riff 1
+ Riff 2
+ Riff 3 x2
+ Riff 4 x2
+ Riff 5 x2
+ Riff 6 x2
+ Riff 7 x2
+ Riff 8.i
+ Riff 8.ii x4
+ Pause
+ Riff 5 x2 (with pauses)
+ Riff 6 x2
+ Riff 7 x2
+ Riff 8.i
+ Orchestral Part
+ Riff 1
+ Riff 2
+ Riff 1
+ Riff 2
+ Riff 9

+ From Genesis To Nemesis... +





Comments


Popular Cradle Of Filth tabs & chords
Saffrons Curse Bass Tabs
Serpent Tongue Bass Tabs
Black Metal 1 Tabs
Cthulu Dawn Tabs
Death Magik For Adepts Tabs
Dusk And Her Embrace Tabs
Gabrielle 1 Tabs
Libertina Grimm Tabs
Mannequin 1 Tabs
Sleepless Tabs


Song lyrics



↑ Back to top | Tablatures and chords are parodies/interpretations of the original songs. You may use it for private study, scholarship, research or language learning purposes only
© 2014 AZChords.com Contact us | Privacy policy | DMCA | Add/correct tabs | Request tabs | Top 50 tabs