>
 >
The Cult Of Venus Aversa

The Cult Of Venus Aversa Guitar Tabs

Cradle Of Filth - The Cult Of Venus Aversa chords, tabs, tablatures, lyrics

Guitar lessons | Add/correct | Request | Top 50 tabs Artists:  A B C D E F G H I J K L M N O P Q R S T U V W X Y Z 0-9

The Cult Of Venus Aversa Guitar Tabs – Cradle Of Filth

CD, Sheet music, Poster

Do you like The Cult Of Venus Aversa? Share with your friends now
Tabs
-------------------------------------------------------------------------------
-------------------------------------------------------------------------------

Tuning: D Standard

Intro x4
d|-------------------------------------------------------------------------|
A|-------------------------------------------------------------------------|
F|-------------------------------------------------------------------------|
C|-999999999999999999999999-12121212-8888888888888888-9999-8888-5555-8888--|
G|-777777777777777777777777-10101010-6666666666666666-7777-6666-3333-6666--|
D|-------------------------------------------------------------------------|

d|--------------------------------------------------------------------------|
A|--------------------------------------------------------------------------|
F|--------------------------------------------------------------------------|
C|-999999999999999999999999-12121212--------------------------88888888------|
G|-777777777777777777777777-10101010-101010101010101010101010-66666666------|
D|-----------------------------------8-8-8-8-8-8-8-8-8-8-8-8----------------|
 
 ---------------------------------------------------------------------------|
 ---------------------------------------------------------------------------|
 ---------------------------------------------------------------------------|
 -88888888------------------------------------------------------------------|
 -66666666------------------------------------------------------------------|
 ---------------------------------------------------------------------------|

Verse 1 x4
Riff 1
d|----------------------------------------------------------------------|
A|----------------------------------------------------------------------|
F|----------------------------------------------------------------------|
C|----------9-9----------9/10-8-----------------------------------------|
G|----------7-7----------7/8--6-----6-----6-6/7-6--8/10-9--5--6--5--3---|
D|-00000000-----00000000--------44444-44444-4/5-4--6/8--7--3--4--3--1---|
PM ________     ________        ____  ____

Riff 2 x4                     Repeat 1          Repeat 2
d|---------------------------|-----------------|------------------|
A|---------------------------|-----------------|------------------|
F|---------------------------|-----------------|------------------|
C|---------------------------|-----------------|------------------|
G|-6--5--3--6--5--3--6--5--6-|------0-1-0------|------------------|
D|-4--3--1--4--3--1--4--3--4-|-0-1-3-------3-1-|-000-000-000-000--|
PM                            ________________   _______________

Intro x2
After Intro
 -------------|
 -------------|
 -------------|
 --9--\-------|
 --7--\-------|
 -------------|

Break
Riff 3 x2
d|---------------------------------------------------------------------------|
A|---------------------------------------------------------------------------|
F|---------------------------------------------------------------------------|
C|---------------------------------------------------------------------------|
G|-777777777777777-9999-10101010-999999999999-10101010-9999-6666666666666666-|
D|---------------------------------------------------------------------------|

 --------------------------------------------------------------------------|
 --------------------------------------------------------------------------|
 --------------------------------------------------------------------------|
 --------------------------------------------------------------------------|
 -9999-10101010-9999999999999999-10101010-9999-7777777777777777-9999-------|
 --------------------------------------------------------------------------|

 --------------------------------------------------------------------------|
 --------------------------------------------------------------------------|
 --------------------------------------------------------------------------|
 --------------------------------------------------------------------------|
 -10101010-9999999999999999-10101010-9999----------------------------------|
 -----------------------------------------8888888888888888-7777-8888-------|

 ------------------|
 ------------------|
 ------------------|
 ------------------|
 ------------------|
 -7777777777777777-|

Verse 1: Riff 2 x2


Break
Riff 4
d|--------------------------------------------------------------------------|
A|--------------------------------------------------------------------------|
F|--------------------------------------------------------------------------|
C|--------------------------------------------------------------------------|
G|-4444444444444444-5555-4444-5555555555555555-4444-5555-4444444444444444---|
D|--------------------------------------------------------------------------|

 --------------------------------------------------------------------------|
 --------------------------------------------------------------------------|
 --------------------------------------------------------------------------|
 --------------------------------------------------------------------------|
 -5555-4444-55555555-44444444-55555555-88888888-7777777777777777-8888-7777-|
 --------------------------------------------------------------------------|

 --------------------------------------------------------------------------|
 --------------------------------------------------------------------------|
 --------------------------------------------------------------------------|
 --------------------------------------------------------------------------|
 -8888888888888888-7777-8888-7777777777777777-8888-7777-88888888-77777777--|
 --------------------------------------------------------------------------|

 --------------------------------------------------------------------------|
 --------------------------------------------------------------------------|
 --------------------------------------------------------------------------|
 --------------------------------------------------------------------------|
 -55555555-77777777-4444444444444444-5555-4444-5555555555555555-4444-5555--|
 --------------------------------------------------------------------------|

 --------------------------------------------------------------------------|
 --------------------------------------------------------------------------|
 --------------------------------------------------------------------------|
 --------------------------------------------------------------------------|
 -444444444444444-5555-4444-55555555-44444444----------44444444------------|
 ---------------------------------------------77777777---------------------|

 --------------------------------------------------------------------------|
 --------------------------------------------------------------------------|
 --------------------------------------------------------------------------|
 --------------------------------------------------------------------------|
 --------------------------------------------------------------------------|
 -6666666666666666-7777-6666-7777777777777777-6666-7777-6666666666666666---|

 ------------------------------------------------|
 ------------------------------------------------|
 ------------------------------------------------|
 ------------------------------------------------|
 --------------------------------------55555555--|
 -7777-6666-77777777-66666666-77777777-----------|

Break
Riff 5
d|--------------------------------------------------------------------------|
A|--------------------------------------------------------------------------|
F|--------------------------------------------------------------------------|
C|-6-----6-----6-----6-----6-----6-----7-6-7-10-9-----9-----9-----9-----9---|
G|-4-44444-44444-44444-44444-44444-44445-4-5-8--7-77777-77777-77777-77777---|
D|--------------------------------------------------------------------------|
PM   ____  ____  ____  ____  ____  ____           ____  ____  ____  ____

 --------------------------------------------------------------------------|
 --------------------------------------------------------------------------|
 --------------------------------------------------------------------------|
 -----9-----10-9-7-9-6-----6-----6-----6-----6-----6-----7-6-4-6-----------|
 -77777-77778--7-5-7-4-44444-44444-44444-44444-44444-44445-4-2-4-8-----8---|
 ----------------------------------------------------------------6-66666---|
PM____  ____           ____  ____  ____  ____  ____                ____

 ---------------------------------------|
 ---------------------------------------|
 ---------------------------------------|
 -----------------------------------7---|
 -----8-----8-----8-----8-----9-8-9-5---|
 -66666-66666-66666-66666-66667-6-7-----|
PM____  ____  ____  ____  ____


Intro x2
Break Riff 5 x2
Verse 1 Riff 2 x4 (on fourth repeat end with this)
|------------------|
|------------------|
|------------------|
|------------------|
|------------------|
|-000-000-000------|
PM___________



Intro x 2
Verse 1 Riff 1 x4

END

Thanks for looking!

************************************

| /   slide up
| \   slide down
| h   hammer-on
| p   pull-off
| ~   vibrato
| +   harmonic
| x   Mute note
| b   Bend
| pb  Pre-bend
| br  Bend release
| pbr Pre-bend release
| brb Bend release bend

************************************





Comments


Popular Cradle Of Filth tabs & chords
Cruelty Brought Thee Orchids Bass Tabs
No Time To Cry Drum Tabs
Beneath The Howling Stars Tabs
Carrion Tabs
Cruelty Brought Thee Orchids 1 Tabs
Hallowed Be Thy Name 5 Tabs
Serpent Tongue Tabs
Suicide And Other Comforts Tabs
The Promise Of Fever 1 Tabs
The Promise Of Fever 2 Tabs


Song lyrics



↑ Back to top | Tablatures and chords are parodies/interpretations of the original songs. You may use it for private study, scholarship, research or language learning purposes only
© 2014 AZChords.com Contact us | Privacy policy | DMCA | Add/correct tabs | Request tabs | Top 50 tabs