>
 >
Tearing The Veil From Grace

Tearing The Veil From Grace Guitar Tabs

Cradle Of Filth - Tearing The Veil From Grace chords, tabs, tablatures, lyrics

Guitar lessons | Add/correct | Request | Top 50 tabs Artists:  A B C D E F G H I J K L M N O P Q R S T U V W X Y Z 0-9

Tearing The Veil From Grace Guitar Tabs – Cradle Of Filth

CD, Sheet music, Poster

Do you like Tearing The Veil From Grace? Share with your friends now
Tabs
Cradle Of Filth

Tuning: (high to low) D G C F A D

ok.... im getting there. a lot of this is still wrong but its around about right...
so it works kinda thing... some f**k on another tab site stole it and claimed it as
their own so i decided to do some more of it... so now they havent taken it... so
yeah. i hate people who do that!

Riff A (i think its something along these lines)
|-------------------------------------------------------------------------------------------------|
|-------------------------------------------------------------------------------------------------|
|-------------------------------------------------------------------------------------------------|
|7-5-7-2----7-5-7-10-10-10-5-4-5-0----5-4-5-9-9-9-10-10-10-10----9-9-9-9----4-4-4-4----5-5-5-5----|
|-------------------------------------------------------------------------------------------------|
|-------------------------------------------------------------------------------------------------|

Riff B
|---------------------------------------------------|
|---------------------------------------------------|
|---------------------------------------------------|
|---------------------------------------------------|
|7-7-7-7-7-7-9-9-9-10-10-10-5-5-5-5-5-5-4-4-4-4-4-4-|
|5-5-5-5-5-5-7-7-7--8--8--8-3-3-3-3-3-3-2-2-2-2-2-2-|
                              . .   . .   . .   . .

Riff C (all tremolos)
|--------------------------------------------------|
|--------------------------------------------------|
|--------------------------------------------------|
|------------------10-9------------8-7-------------|
|7-------9--10------8-7----5-------6-5---4----3----|
|5-------7---8-------------3-------------2----1----|

Riff D (all tremolos except the last 3 chords)
|---------------------------------------|
|---------------------------------------|
|---------------------------------------|
|---------------------------------------|
|7-10-7-10-6-9-6-9-7-10-7-10-6-9-7-9-12-|
|5--8-5--8-4-7-4-7-5--8-5--8-4-7-5-7-10-|
  			         . . 

Riff E (all tremolos)
|---------------------------------------|
|---------------------------------------|
|---------------------------------------|
|7-10-7-10-6-9-6-9-7-10-7-10-6-9-7-9-12-|
|---------------------------------------|
|---------------------------------------|

Riff F
|----------------------------------------------------------------------------------------------------|
|----------------------------------------------------------------------------------------------------|
|----------------------------------------------------------------------------------------------------|
|-----------5h6-4h5-3h4-2------------3p2-4p3-5p4-6------------5h6-4h5-3h4-2------------3p2-5p4-7p6-9-|
|4-44444-4----------------4-44444-4----------------4-44444-4----------------4-44444-4----------------|
|2-22222-2----------------2-22222-2----------------2-22222-2----------------2-22222-2----------------|

Riff G
|--------------------------------------------------|
|--------------------------------------------------|
|--------------------------------------------------|
|------------------10-9------------8-7-------------|
|7-------9--10------8-7----5-------6-5---4----3----|
|5-------7---8-------------3-------------2----1----|

Riff H (the end part of this is wrong i know)
|-----------------------------------------------------------------------------------------|
|-----------------------------------------------------------------------------------------|
|-----------------------------------------------------------------------------------------|
|------------55554444-------------77775555-------------55554444-1010-99-77-55-44-22-------|
|77-77-77-77----------77-77-77-77----------77-77-77-77-----------8-8-77-55-33-22-00-55-44-|
|55-55-55-55----------55-55-55-55----------55-55-55-55------------------------------33-22-|
 .. .. .. ..          .. .. .. ..          .. .. .. ..         

Riff I
|--------|
|--------|
|--------|
|--------|
|7-------|
|5-------|

Riff J (somthing like this)
|-----------------------------------------------------------------------------------------------------------|
|-----------------------------------------------------------------------------------------------------------|
|-----------------------------------------------------------------------------------------------------------|
|77557722222775577101010101010554455000005544559999991010101010101010101010999999999994444444444455555555555|
|-----------------------------------------------------------------------------------------------------------|
|-----------------------------------------------------------------------------------------------------------|

Riff K
|-----------------------------------|
|-----------------------------------|
|-----------------------------------|
|-----------------------------------|
|7------------5---------5-5-5-7-7-7-|
|5------------3---------2-2-2-3-3-3-|

Riff L
|------------------------------------------------------|
|------------------------------------------------------|
|------------------------------------------------------|
|------------------------------------------------------|
|7--7-5--7-7-5-7-7-5-7-7-7--5--5-5-3-5-5-5-3-3-3-5-5-5-|
|5--5-3--5-5-3-5-5-3-5-5-5--3--3-3-1-3-3-3-1-1-1-3-3-3-|
                                           . . . . . .

Solo
???

Riff M
|--------------|
|--------------|
|--------------|
|8-888-888-888-|
|6-666-666-666-|

Riff N
|-------------------------|
|-------------------------|
|-------------------------|
|-------------------------|
|8-88888-88888-88888-88-7-|
|6-66666-66666-66666-66-5-|


ORDER

-BREAK-
Riff A
Riff B
Riff A
Riff B x 2
Riff C x 2
Riff D x 2
Riff D + Riff E x 2
Riff C x 2
Riff D x 2
Riff F x 2
-BREAK-
Riff G
Riff H x 2
Riff G
Riff C
Riff D x 2
Riff H x 2
Riff I
-BREAK-
Riff J
Riff B (tremolos) x 2 (palm mute last 8 chords)
-BREAK-
Riff K
Riff L x ?
Solo
Riff L x ?
Riff G
Riff M
Riff C
Riff D x 2
Riff D + Riff E x 2
Riff N





Comments


Popular Cradle Of Filth tabs & chords
Desire In Violent Overture Bass Tabs
Lustmord And Wargasm Bass Tabs
Saffron's Curse Bass Tabs
Sleepless 2 Bass Tabs
Beneath The Howling Stars 1 Tabs
Devil Woman Tabs
Funeral In Carpathia Tabs
Her Ghost In The Fog 1 Tabs
Her Ghost In The Fog 5 Tabs
The Persecution Song Tabs


Song lyrics



↑ Back to top | Tablatures and chords are parodies/interpretations of the original songs. You may use it for private study, scholarship, research or language learning purposes only
© 2014 AZChords.com Contact us | Privacy policy | DMCA | Add/correct tabs | Request tabs | Top 50 tabs