» » »

Cradle Of Filth, Sodomy & Lust Bass tabs (ver.1)

Artists:  A B C D E F G H I J K L M N O P Q R S T U V W X Y Z # 

Sodomy & Lust Bass tabs (ver.1)

Cradle Of Filth Tabs
 Rating:
4/5 (4 votes)
Sodomy & Lust lessons Tabs too difficult? Try these video lessons and learn fast
                Drop D

G||------------------|------------------|------------------|------------------|
D||------------------|------------------|------------------|------------------|
A||------------------|------------------|------------------|------------------|
D||------------------|------------------|------------------|------------------|


                                                                     
----------------------|----------------------|----------------------|
----------------------|----------------------|----------------------|
----------------------|----------------------|----------------------|
--6----6----6----6----|--6----6----6----6----|--4----4----4----4----|


                                                                     
----------------------|----------------------|----------------------|
----------------------|----------------------|----------------------|
----------------------|----------------------|----------------------|
--4----4----4----4----|--6----6----6----6----|--6----6----6----6----|


                                                                     
----------------------|----------------------|----------------------|
----------------------|----------------------|----------------------|
----------------------|----------------------|----------------------|
--4----4----4----4----|--4----4----4----4----|--6----6----6----6----|


                                                                     
----------------------|----------------------|----------------------|
----------------------|----------------------|----------------------|
----------------------|----------------------|----------------------|
--6----6----6----6----|--4----4----4----4----|--4----4----4----4----|


                                                      
--------------------------|--------------------------|
--------------------------|--------------------------|
--------------------------|--1--1--1--1--0--0--0--0--|
--1--1--1--1--0--0--1--1--|--------------------------|


                                                      
--------------------------|--------------------------|
--------------------------|--------------------------|
--------------------------|--1--1--1--1--0--0--0--0--|
--1--1--1--1--0--0--1--1--|--------------------------|


                                                      
--------------------------|--------------------------|
--------------------------|--------------------------|
--------------------------|--1--1--1--1--0--0--0--0--|
--1--1--1--1--0--0--1--1--|--------------------------|


                                                                  
--------------------------|-------------------|------------------|
--------------------------|-------------------|------------------|
--------------------------|--1----------------|------------------|
--1--1--1--1--0--0--1--1--|-------------------|------------------|


                                                                     
----------------------|----------------------|----------------------|
----------------------|----------------------|----------------------|
----------------------|----------------------|----------------------|
--6----6----6----6----|--6----6----6----6----|--4----4----4----4----|


                                                                     
----------------------|----------------------|----------------------|
----------------------|----------------------|----------------------|
----------------------|----------------------|----------------------|
--4----4----4----4----|--6----6----6----6----|--6----6----6----6----|


                                                                     
----------------------|----------------------|----------------------|
----------------------|----------------------|----------------------|
----------------------|----------------------|----------------------|
--4----4----4----4----|--4----4----4----4----|--6----6----6----6----|


                                                                     
----------------------|----------------------|----------------------|
----------------------|----------------------|----------------------|
----------------------|----------------------|----------------------|
--6----6----6----6----|--4----4----4----4----|--4----4----4----4----|


                                                      
--------------------------|--------------------------|
--------------------------|--------------------------|
--------------------------|--1--1--1--1--0--0--0--0--|
--1--1--1--1--0--0--1--1--|--------------------------|


                                                      
--------------------------|--------------------------|
--------------------------|--------------------------|
--------------------------|--1--1--1--1--0--0--0--0--|
--1--1--1--1--0--0--1--1--|--------------------------|


                                                      
--------------------------|--------------------------|
--------------------------|--------------------------|
--------------------------|--1--1--1--1--0--0--0--0--|
--1--1--1--1--0--0--1--1--|--------------------------|


                                                                  
--------------------------|-------------------|------------------|
--------------------------|-------------------|------------------|
--------------------------|--1----------------|------------------|
--1--1--1--1--0--0--1--1--|-------------------|------------------|


                                                 
------------------|-----------------------------|
------------------|-----------------------------|
------------------|------5----5----6----5----3--|
------------------|--0-0----0----0----0----0----|


                                                              
-------------------------------|-----------------------------|
-------------------------------|-----------------------------|
------5----5--------1-3-5-6-5--|------5----5----6----5----3--|
--0-0----0----3-5-7------------|--0-0----0----0----0----0----|


                                                              
-------------------------------|-----------------------------|
-------------------------------|-----------------------------|
------5----5--------1-3-5-6-5--|------5----5----6----5----3--|
--0-0----0----3-5-7------------|--0-0----0----0----0----0----|


                                                              
-------------------------------|-----------------------------|
-------------------------------|-----------------------------|
------5----5--------1-3-5-6-5--|------5----5----6----5----3--|
--0-0----0----3-5-7------------|--0-0----0----0----0----0----|


                                                              
-------------------------------|-----------------------------|
-------------------------------|-----------------------------|
------5----5--------1-3-5-6-5--|------5----5----6----5----3--|
--0-0----0----3-5-7------------|--0-0----0----0----0----0----|


                                                              
-------------------------------|-----------------------------|
-------------------------------|-----------------------------|
------5----5--------1-3-5-6-5--|------5----5----6----5----3--|
--0-0----0----3-5-7------------|--0-0----0----0----0----0----|


                                                               
-------------------------------|------------------------------|
-------------------------------|------------------------------|
------5----5--------1-3-5-6-5--|------------------------------|
--0-0----0----3-5-7------------|--6--0-5--0-3--0-0-0-0-0--0-0-|


                                                                              
------------------------------|------------------------------|---------------|
------------------------------|------------------------------|---------------|
------------------------------|------------------------------|---------------|
--6--0-5--0-3--0-0-0-0-0--0-0-|--6--0-5--0-3--0-0-0-0-0--0-0-|--6--0-5--0-3--|


                      3x                     3x                    
|---------------------||---------------------||-------------------|
|*-------------------*||*-------------------*||-------------------|
|*-------------------*||*-------------------*||-------------------|
|---0-----------------||---0-----------------||--0----------------|


                                                                     
----------------------|----------------------|----------------------|
----------------------|----------------------|----------------------|
----------------------|----------------------|----------------------|
--6----6----6----6----|--6----6----6----6----|--4----4----4----4----|


                                                               
----------------------|-------------------|-------------------|
----------------------|-------------------|-------------------|
----------------------|-------------------|-------------------|
--4----4----4----4----|--6----------------|--6----------------|


                                                               
-------------------|-------------------|----------------------|
-------------------|-------------------|----------------------|
-------------------|-------------------|----------------------|
--4----------------|--4----------------|--6----6----6----6----|


                                                                     
----------------------|----------------------|----------------------|
----------------------|----------------------|----------------------|
----------------------|----------------------|----------------------|
--6----6----6----6----|--4----4----4----4----|--4----4----4----4----|


                                                                     
----------------------|----------------------|----------------------|
----------------------|----------------------|----------------------|
----------------------|----------------------|----------------------|
--6----6----6----6----|--6----6----6----6----|--4----4----4----4----|


                                                                             
----------------------|--------------------------|--------------------------|
----------------------|--------------------------|--------------------------|
----------------------|--------------------------|--1--1--1--1--0--0--0--0--|
--4----4----4----4----|--1--1--1--1--0--0--1--1--|--------------------------|


                                                      
--------------------------|--------------------------|
--------------------------|--------------------------|
--------------------------|--1--1--1--1--0--0--0--0--|
--1--1--1--1--0--0--1--1--|--------------------------|


                                                      
--------------------------|--------------------------|
--------------------------|--------------------------|
--------------------------|--1--1--1--1--0--0--0--0--|
--1--1--1--1--0--0--1--1--|--------------------------|


                                                                             
--------------------------|--------------------------|----------------------|
--------------------------|--------------------------|----------------------|
--------------------------|--1--1--1--1--0--0--0--0--|----------------------|
--1--1--1--1--0--0--1--1--|--------------------------|--6----6----6----6----|


                                                                     
----------------------|----------------------|----------------------|
----------------------|----------------------|----------------------|
----------------------|----------------------|----------------------|
--6----6----6----6----|--4----4----4----4----|--4----4----4----4----|


                                                                     
----------------------|----------------------|----------------------|
----------------------|----------------------|----------------------|
----------------------|----------------------|----------------------|
--6----6----6----6----|--6----6----6----6----|--4----4----4----4----|


                                                                     
----------------------|----------------------|----------------------|
----------------------|----------------------|----------------------|
----------------------|----------------------|----------------------|
--4----4----4----4----|--6----6----6----6----|--6----6----6----6----|


                                                                         
----------------------|----------------------|--------------------------|
----------------------|----------------------|--------------------------|
----------------------|----------------------|--------------------------|
--4----4----4----4----|--4----4----4----4----|--1--1--1--1--0--0--1--1--|


                                                      
--------------------------|--------------------------|
--------------------------|--------------------------|
--1--1--1--1--0--0--0--0--|--------------------------|
--------------------------|--1--1--1--1--0--0--1--1--|


                                                      
--------------------------|--------------------------|
--------------------------|--------------------------|
--1--1--1--1--0--0--0--0--|--------------------------|
--------------------------|--1--1--1--1--0--0--1--1--|


                                                                          
--------------------------|--------------------------|-------------------|
--------------------------|--------------------------|-------------------|
--1--1--1--1--0--0--0--0--|--------------------------|--1----------------|
--------------------------|--1--1--1--1--0--0--1--1--|-------------------|


                                                     
--------------|------------------|------------------|
--------------|------------------|------------------|
--------------|------------------|------------------|
--------------|------------------|------------------|


                                                                      
----------------------------------|----------------------------------|
----------------------------------|----------------------------------|
----------------------------------|----------------------------------|
--0-0-0-0-0-0-0-0-0-0-0-0-0-0-0-0-|--0-0-0-0-0-0-0-0-0-0-0-0-0-0-0-0-|


                                                                      
----------------------------------|----------------------------------|
----------------------------------|----------------------------------|
----------------------------------|----------------------------------|
--0-0-0-0-0-0-0-0-0-0-0-0-0-0-0-0-|--0-0-0-0-0-0-0-0-0-0-0-0-0-0-0-0-|


                                                                      
----------------------------------|----------------------------------|
----------------------------------|----------------------------------|
----------------------------------|----------------------------------|
--0-0-0-0-0-0-0-0-0-0-0-0-0-0-0-0-|--0-0-0-0-0-0-0-0-0-0-0-0-0-0-0-0-|


                                                               
------------------|---------------------|--------------------||
------------------|---------------------|--------------------||
------------------|---------------------|--------------------||
------------------|----------------7-13-|--12----------------||
            
Submit corrections

comments powered by Disqus
↑ Back to top | Cradle Of Filth Bass for Sodomy & Lust. Lyrics for acoustic guitar and electric guitar. Tablatures and chords are parodies/interpretations of the original songs. You may use it for private study, scholarship, research or language learning purposes only