>
 >
Serpent Tongue

Serpent Tongue Bass Tabs

Cradle Of Filth - Serpent Tongue chords, tabs, tablatures, lyrics

Guitar lessons | Add/correct | Request | Top 50 tabs Artists:  A B C D E F G H I J K L M N O P Q R S T U V W X Y Z 0-9

Serpent Tongue Bass Tabs – Cradle Of Filth

CD, Sheet music, Poster

Do you like Serpent Tongue? Share with your friends now
Bass TabsTabsTabs v2
================================================================================
                          C R A D L E   O F   F I L T H

                                       -

                           S E R P E N T   T O N G U E
================================================================================


                               DAMNATION AND A DAY
                             (c) Sony Records - 2003


                       Tune down one step, then Drop D (to C)
                                     C G C F


                                 Tempo = 100 BPM
                              Time Signature = 4/4


                          -----------------------------

                                 PADDY MCMULLAN

                                   Version 1.0
                                19th February 2009
                             -----------------------

                             Tablature Symbols Used:


 p         -  Pull-Off
 h         -  Hammer-On
 (/)       -  Legato Slide (Blank space indicates length of slide)
 \         -  Slide Down to/Down From (Blank space indicates length of slide)
 /         -  Slide Up To/Up From (Blank space indicates length of slide)
 ( )       -  Ghost Note/Tied Note/Implied Note
 REST      -  Rest and sustain rest for duration of blank space
 |_3_|     -  Triplet Notes
 |___[1]   -  Ending 1/2/3 etc.



================================================================================
Rest for 4 bars
================================================================================

================================================================================
Intro: Play 8 times
================================================================================


       |_3_|            |_3_|
||------------------------------------| |
||------------------------------------|*|
||------------------------------------|*|
||--2--2-2-2-2-2-2-2-2--2-2-2-2-2-2-2-| |



================================================================================
Verse: Play twice [ Tempo = 104 BPM ]
================================================================================


       |_3_|            |_3_|               |_3_|            |_3_|
||------------------------------------|------------------------------------|
||------------------------------------|------------------------------------|
||------------------------------------|------------------------------------|
||--2--2-2-2-5-5-5-5-5--5-5-5-5-5-5-5-|--7--5-5-5-5-5-5-5-7--0-0-0-0-0-0-0-|


      |_3_|            |_3_|               |_3_|            |_3_|
|------------------------------------|----------------------------------| |
|------------------------------------|----------------------------------|*|
|------------------------------------|----------------------------------|*|
|--2--2-2-2-5-5-5-5-5--5-5-5-5-5-5-5-|--7--7-7-7-7-7-9--7--7-7-7-9--10--| |



================================================================================
Post-Verse: Play once
================================================================================


||-------------------------|--------R-----R-----------|
||-------------------------|--------E-----E-----------|
||--3--5--3--6----5--3--5--|--------S-----S-----------|
||-------------------------|--3--2--T--3--T--5--6--5--|


|------------------------|------------------------|-------------------------|
|------------------------|------------------------|-------------------------|
|--3--6--3--4----3--6----|------------------------|--3--5--3--6----5--3--5--|
|------------------------|--3--2----3----5--6--8--|-------------------------|


|------------------------|------------------------|------------------------||
|------------------------|------------------------|------------------------||
|------------------------|--3--6--3--4----3--6----|------------------------||
|--3--2----3----5--6--5--|------------------------|--3--2----3----5--6--8--||



================================================================================
Section 2: Play once
================================================================================


||----------------------------------|----------------------------------|
||----------------------------------|----------------------------------|
||----------------------------------|----------------------------------|
||--3-3-3-3-3-3-4-0-3-3-3-3-3-3-4-0-|--6-6-7-0-1-1-4-0-4-4-5-0-5-5-7-4-|


|----------------------------------|-----------------------------------| |
|----------------------------------|-----------------------------------|*| X 2
|----------------------------------|-----------------------------------|*|
|--3-3-3-3-3-3-4-0-3-3-3-3-3-3-4-0-|--6-6-7-0-4-4-6-0-7-7-9-0-8-8-10-0-| |


|----------------------------------|----------------------------------|
|----------------------------------|----------------------------------|
|----------------------------------|----------------------------------|
|--3-3-3-3-3-3-4-0-3-3-3-3-3-3-4-0-|--6-6-7-0-1-1-4-0-4-4-5-0-5-5-7-4-|


|--------------------------------|-----------------------------------||
|--------------------------------|-----------------------------------||
|--3--3--3--4-4-4-3--3--3--7-7-7-|-----------------------------------||
|--------------------------------|--6-6-7-0-4-4-6-0-7-7-9-0-8-8-10-0-||



================================================================================
Pre-Chorus: Play twice
================================================================================


           |_3|        |_3|              |_3|
||--------------------------|--------------------------|
||--------------------------|--------------------------|
||--0------2--4-3------2--3-|--2----1-------1----------|
||--------------------------|------------4----5-6---6--|

          |_3|        |_3|              |_3_|
|--------------------------|----------------------------| |
|--------------------------|----------------------------|*|
|--0------2--4-3------3--2-|--4----2----2 / 7-6--6-7-5--|*|
|--------------------------|----------------------------| |



================================================================================
Chorus: Play once
================================================================================


||----------------------------------|----------------------------------|
||----------------------------------|----------------------------------|
||--4-4-4-4-4-4-4-4-4-4-4-4-4-4-4-4-|--4-4-4-4-4-4-4-4-4-4-7-7-5-5-5-5-|
||----------------------------------|----------------------------------|


|----------------------------------|----------------------------------|
|----------------------------------|----------------------------------|
|--4-4-4-4-4-4-4-4-4-4-4-4-4-4-4-4-|--4-4-4-4-4-4-4-4-4-3-5-5-3-3-2-2-|
|----------------------------------|----------------------------------|


|----------------------------------|----------------------------------|
|----------------------------------|----------------------------------|
|--4-4-4-4-4-4-4-4-4-4-4-4-4-4-4-4-|--4-4-4-4-4-4-4-4-4-4-7-7-5-5-5-5-|
|----------------------------------|----------------------------------|


|----------------------------------|---------------------------||
|----------------------------------|---------------------------||
|--4-4-4-4-4-4-4-4-4-4-4-4-4-4-4-4-|--------------3--2 / 8--7--||
|----------------------------------|--5--4--3--2---------------||


|----------R-          -||
|----------E-          -||
|--7--  \--S-          -||
|----------T-          -||



================================================================================
Rest for 3 bars
================================================================================

================================================================================
Play the Intro 4 times
================================================================================

================================================================================
Play the Verse twice
================================================================================

================================================================================
Play the Post-Verse once
================================================================================

================================================================================
Play Section 2 once
================================================================================

================================================================================
Play the Pre-Chorus twice
================================================================================

================================================================================
Play the Chorus once
================================================================================

================================================================================
Outro: Play once
================================================================================


    |_3| |_3_| |_3| |_3_| |_3| |_3_| |_3| |_3_|
||----------------------------------------------|
||----------------------------------------------|
||--8--8-8-8-8-8--8-8-8-8-8--8-8-8-8-8--8-8-8-8-|
||----------------------------------------------|

   |_3| |_3_| |_3| |_3_|            |_3_|
|-----------------------------------------|
|-----------------------------------------|
|--8--8-8-8-8-8--8-8-8-8-8 / 11--9--9-9-9-|
|-----------------------------------------|

   |_3| |_3_| |_3| |_3_| |_3| |_3_| |_3| |_3_|
|----------------------------------------------|---------------------------|
|----------------------------------------------|---------------------------|
|--8--8-8-8-8-8--8-8-8-8-8--8-8-8-8-8--8-8-8-8-|--------------3--2 / 8--7--|
|----------------------------------------------|--5--4--3--2---------------|


|--------------------------------------------------------------------------|
|--------------------------------------------------------------------------|
|--11-11-11-11-11-11-11-11-11-11-11-11-11-11-11-11-11-11-11-11-11-11-11-11-|
|--------------------------------------------------------------------------|


|-----------------------------------------------------|
|------------------------------------------9----------|
|--11-11-11-11-11-11-11-11-11-11-11-11-11-----12--12--|
|-----------------------------------------------------|


|--------------------------------------------------------------------------|
|--------------------------------------------------------------------------|
|--11-11-11-11-11-11-11-11-11-11-11-11-11-11-11-11-11-11-11-11-11-11-11-11-|
|--------------------------------------------------------------------------|


|---------------------------||----------R-          -||
|---------------------------||----------E-          -||
|--------------3--2 / 8--7--||--7--  \--S-          -||
|--5--4--3--2---------------||----------T-          -||



================================================================================
End
================================================================================


Tab summary:        Intro x 8
                    Verse x 2
                    Post-Verse x 1
                    Section 2 x 1
                    Pre-Chorus x 2
                    Chorus x 1
                    Intro x 4
                    Verse x 2
                    Post-Verse x 1
                    Section 2 x 1
                    Pre-Chorus x 2
                    Chorus x 1
                    Outro x 1

                    END





Comments


Popular Cradle Of Filth tabs & chords
Gilded Cunt Bass Tabs
Nymphetamine Bass Tabs
Angel Of Death Tabs
Byronic Man 3 Tabs
Lord Abortion 2 Tabs
Malice Through The Looking Glass Tabs
Mannequin Tabs
Nymphetamine 7 Tabs
The Black Goddess Rises 2 Tabs
Waghorn Hates Rudeboys Tabs


Song lyrics



↑ Back to top | Tablatures and chords are parodies/interpretations of the original songs. You may use it for private study, scholarship, research or language learning purposes only
© 2014 AZChords.com Contact us | Privacy policy | DMCA | Add/correct tabs | Request tabs | Top 50 tabs