>
 >
Queen Of Winter, Throned

Queen Of Winter, Throned Bass Tabs

Cradle Of Filth - Queen Of Winter, Throned chords, tabs, tablatures, lyrics

Guitar lessons | Add/correct | Request | Top 50 tabs Artists:  A B C D E F G H I J K L M N O P Q R S T U V W X Y Z 0-9

Queen Of Winter, Throned Bass Tabs – Cradle Of Filth

CD, Sheet music, Poster

Do you like Queen Of Winter, Throned? Share with your friends now
Bass TabsTabs
tune down

F#||---------------------|----------------------|---------------------|
C#||--1------------1--3--|--4--------3--4--3----|--2------------2--4--|
G#||---------------------|----------------------|---------------------|
D#||---------------------|----------------------|---------------------|


                                                                    
-----------1----------|---------------------|----------------------|
--------------4--2----|--1------------1--3--|--4--------3--4--3----|
----------------------|---------------------|----------------------|
--4-------------------|---------------------|----------------------|


                                                             
-------------------|------------------|---------------------|
--0----------------|------------------|--1------------1--3--|
-------------------|------------------|---------------------|
-------------------|------------------|---------------------|


                                                                    
----------------------|---------------------|-----------1----------|
--4--------3--4--3----|--2------------2--4--|--------------4--2----|
----------------------|---------------------|----------------------|
----------------------|---------------------|--4-------------------|


                                                                 
---------------------|----------------------|-------------------|
--1------------1--3--|--4--------3--4--3----|--0----------------|
---------------------|----------------------|-------------------|
---------------------|----------------------|-------------------|


                                                                               
------------------|-------------------|-------------------|-------------------|
------------------|-------------------|-------------------|-------------------|
------------------|-------------------|-------------------|-------------------|
------------------|--4----------------|--2----------------|--0----------------|


                                                              
--------------------|-------------------|--------------------|
-----------1--------|-------------------|--------------------|
--4-----------------|-------------------|--1-----------------|
--------------------|--4----------------|-----------2--------|


                                                                      
-------------------|----------------------|--------------------------|
-------------------|----------------------|--------------------------|
-------------------|--4--------2---1---2--|--------------------------|
--0----------------|----------------------|--4--4--4--4--4--4--4--4--|


                                                      
--------------------------|--------------------------|
--------------------------|--------------------------|
--0--0--0--0--3--3--2--3--|--------------------------|
--------------------------|--4--4--4--4--4--4--4--4--|


                                                      
--------------------------|--------------------------|
--------------------------|--------------------------|
--0--0--0--0--3--3--2--3--|--------------------------|
--------------------------|--4--4--4--4--4--4--4--4--|


                                                      
--------------------------|--------------------------|
--------------------------|--------------------------|
--0--0--0--0--3--3--2--3--|--------------------------|
--------------------------|--4--4--4--4--4--4--4--4--|


                                                      
--------------------------|--------------------------|
--------------------------|--------------------------|
--0--0--0--0--3--3--2--3--|--------------2--1--2--1--|
--------------------------|--0--0--0--0--------------|


                                                                         
--------------------------|----------------------|----------------------|
--------------------------|----------------------|----------------------|
--------------2--1--2--1--|----------2--1--2--1--|----------2--1--2--1--|
--0--0--0--0--------------|----------------------|----------------------|


                                                                             
--------------------------|--------------------------|----------------------|
--------------------------|--------------------------|----------------------|
--------------2--1--2--1--|--------------2--1--2--1--|----------2--1--2--1--|
--0--0--0--0--------------|--0--0--0--0--------------|----------------------|


                                                                           
----------------------|------------------------|--------------------------|
----------------------|------------------------|--------------------------|
----------2--1--2--1--|------------------------|--0--0--0--0--3--3--2--3--|
----------------------|--4------4-4-4---4---4--|--------------------------|


                                                      
--------------------------|--------------------------|
--------------------------|--------------------------|
--------------------------|--0--0--0--0--3--3--2--3--|
--4--4--4--4--4--4--4--4--|--------------------------|


                                                      
--------------------------|--------------------------|
--------------------------|--------------------------|
--------------------------|--0--0--0--0--3--3--2--3--|
--4--4--4--4--4--4--4--4--|--------------------------|


                                                      
--------------------------|--------------------------|
--------------------------|--------------------------|
--------------------------|--0--0--0--0--3--3--2--3--|
--4--4--4--4--4--4--4--4--|--------------------------|


                                                                             
--------------------------|--------------------------|----------------------|
--------------------------|--------------------------|----------------------|
--------------2--1--2--1--|--------------2--1--2--1--|----------2--1--2--1--|
--0--0--0--0--------------|--0--0--0--0--------------|----------------------|


                                                                             
----------------------|--------------------------|--------------------------|
----------------------|--------------------------|--------------------------|
----------2--1--2--1--|--------------2--1--2--1--|--------------2--1--2--1--|
----------------------|--0--0--0--0--------------|--0--0--0--0--------------|


                                                                   
----------------------|----------------------|--------------------|
----------------------|----------------------|--------------------|
----------2--1--2--1--|----------2--1--2--1--|--4--------4--------|
----------------------|----------------------|--------------------|


                                                                         
-------------------------|--------------------|-------------------------|
----2--2--2--2--2--2--2--|--------------------|----2--1-----1-----1--2--|
-------------------------|--4--------4--------|----------4-----4--------|
-------------------------|--------------------|-------------------------|


                                                                    
--------------------|-------------------------|--------------------|
--------------------|----2--2--2--2--2--2--2--|--------------------|
--4--------4--------|-------------------------|--4--------4--------|
--------------------|-------------------------|--------------------|


                                                             
-------------------------|----------------------------------|
----2--1-----1-----1--2--|--2-2-2-2-2-2-2-2-2-2-2-2-2-2-2-2-|
----------4-----4--------|----------------------------------|
-------------------------|----------------------------------|


                                                                      
----------------------------------|----------------------------------|
--2-2-2-2-2-2-2-2-1-1-----1-1-2-2-|--1-1-1-1-1-1-1-1-1-1-1-1-1-1-1-1-|
----------------------4-4---------|----------------------------------|
----------------------------------|----------------------------------|


                                                                      
----------------------------------|----------------------------------|
--2-2-2-2-1-1-----1-1-----1-1-2-2-|--2-2-2-2-2-2-2-2-2-2-2-2-2-2-2-2-|
--------------4-4-----4-4---------|----------------------------------|
----------------------------------|----------------------------------|


                                                                      
----------------------------------|----------------------------------|
--2-2-2-2-2-2-2-2-1-1-----1-1-2-2-|--1-1-1-1-1-1-1-1-1-1-1-1-1-1-1-1-|
----------------------4-4---------|----------------------------------|
----------------------------------|----------------------------------|


                                                                      
----------------------------------|----------------------------------|
--2-2-2-2-1-1-----1-1-----1-1-2-2-|--2-2-2-2-2-2-2-2-2-2-2-2-2-2-2-2-|
--------------4-4-----4-4---------|----------------------------------|
----------------------------------|----------------------------------|


                                                                      
----------------------------------|----------------------------------|
--2-2-2-2-2-2-2-2-1-1-----1-1-2-2-|--1-1-1-1-1-1-1-1-1-1-1-1-1-1-1-1-|
----------------------4-4---------|----------------------------------|
----------------------------------|----------------------------------|


                                                                      
----------------------------------|----------------------------------|
--2-2-2-2-1-1-----1-1-----1-1-2-2-|--2-2-2-2-2-2-2-2-2-2-2-2-2-2-2-2-|
--------------4-4-----4-4---------|----------------------------------|
----------------------------------|----------------------------------|


                                                                      
----------------------------------|----------------------------------|
--2-2-2-2-2-2-2-2-1-1-----1-1-2-2-|--1-1-1-1-1-1-1-1-1-1-1-1-1-1-1-1-|
----------------------4-4---------|----------------------------------|
----------------------------------|----------------------------------|


                                                            
----------------------------------|------------------------|
--2-2-2-2-1-1-----1-1-----1-1-2-2-|--1--3--3--3--3------3--|
--------------4-4-----4-4---------|------------------------|
----------------------------------|------------------------|


                                                                             
--------------------0--1--|--------------------0--1--|----------------------|
--1--3--3--3--3--3--------|--1--3--3--3--3--3--------|----------------------|
--------------------------|--------------------------|----------------------|
--------------------------|--------------------------|--4--4--3--1----------|


                                                                               
------------------------|--------------------0--1--|--------------------0--1--|
--1--3--3--3--3------3--|--1--3--3--3--3--3--------|--1--3--3--3--3--3--------|
------------------------|--------------------------|--------------------------|
------------------------|--------------------------|--------------------------|


                                                                             
----------------------|--------------------------|--------------------0--1--|
----------------------|--1--3--3--3--3--3--3--3--|--1--3--3--3--3--3--------|
----------------------|--------------------------|--------------------------|
--4--4--3--1----------|--------------------------|--------------------------|


                                                                             
--------------------0--1--|----------------------|--------------------------|
--1--3--3--3--3--3--------|----------------------|-----3--3--3--3--3--3--3--|
--------------------------|----------------------|--4-----------------------|
--------------------------|--4--4--3--1----------|--6-----------------------|


                                                                             
--------------------0--1--|--------------------0--1--|----------------------|
--1--3--3--3--3--3--------|--1--3--3--3--3--3--------|----------------------|
--------------------------|--------------------------|----------------------|
--------------------------|--------------------------|--4--4--3--1----------|


                                                                              
-------------------------|-------------------------|-------------------------|
-------------------------|-------------------------|-------------------------|
-------0-----2--0-----0--|--------0----------------|-------0-----2--0-----0--|
----4-----4--------4-----|--0--4-----4--2--0----0--|----4-----4--------4-----|


                                                                            
-----------------------|-------------------------|-------------------------|
-----------------------|-------------------------|-------------------------|
-----------------------|-------0-----2--0-----0--|--------0----------------|
--0--------0--0--2--4--|----4-----4--------4-----|--0--4-----4--2--0----0--|


                                                                             
-------------------------|-----------------------|--------------------------|
-------------------------|-----------------------|--------------------------|
-------0-----2--0-----0--|-----------------------|--1--1--1--1--1--1--1--1--|
----4-----4--------4-----|--0--------0--0--2--4--|--------------------------|


                                                      
--------------------------|--------------------------|
--------------------------|--------------------------|
--------------------------|--------------------------|
--4--4--4--4--4--4--4--4--|--2--2--2--2--2--2--2--2--|


                                                      
--------------------------|--------------------------|
--------------------------|--------------------------|
--------------------------|--1--1--1--1--1--1--1--1--|
--4--4--4--4--4--4--4--4--|--------------------------|


                                                      
--------------------------|--------------------------|
--------------------------|--------------------------|
--------------------------|--------------------------|
--4--4--4--4--4--4--4--4--|--2--2--2--2--2--2--2--2--|


                                                      
--------------------------|--------------------------|
--------------------------|--1--2--1-----1--2--1-----|
--------------------------|-----------4-----------1--|
--4--4--4--4--4--4--4--4--|--------------------------|


                                                      
--------------------------|--------------------------|
--1--2--1-----1--2--1-----|--1--2--1-----1--2--1-----|
-----------4-----------1--|-----------4-----------2--|
--------------------------|--------------------------|


                                                      
--------------------------|--------------------------|
--1--2--1-----1--2--1-----|--1--2--1-----1--2--1-----|
-----------4-----------1--|-----------4-----------1--|
--------------------------|--------------------------|


                                                      
--------------------------|--------------------------|
--1--2--1-----1--2--1-----|--1--2--1-----1--2--1-----|
-----------4-----------1--|-----------4-----------2--|
--------------------------|--------------------------|


                                                      
--------------------------|--------------------------|
--1--2--1-----1--2--1-----|--1--2--1-----1--2--1-----|
-----------4-----------1--|-----------4-----------1--|
--------------------------|--------------------------|


                                                      
--------------------------|--------------------------|
--1--2--1-----1--2--1-----|--1--2--1-----1--2--1-----|
-----------4-----------1--|-----------4-----------2--|
--------------------------|--------------------------|


                                                                     
--------------------------|--------------------|--------------------|
--1--2--1-----1--2--1-----|--1-----------------|--------------------|
-----------4-----------1--|-----------2--------|--1-----------------|
--------------------------|--------------------|-----------4--------|


                                                                            
------------------|------------------|------------------|------------------|
------------------|------------------|------------------|------------------|
------------------|------------------|------------------|------------------|
------------------|------------------|------------------|------------------|


                                                                     
---------------------|---------------------|------------------------|
------1--1-----------|------1--1-----------|------------------------|
---------------------|---------------------|------2--2---1--1-------|
---------------------|---------------------|------------------------|


                                                                   
----------------------|---------------------|---------------------|
------1--1------------|------1--1-----------|------1--1-----------|
----------------------|---------------------|---------------------|
----------------------|---------------------|---------------------|


                                                                      
------------------------|----------------------|---------------------|
------------------------|------1--1------------|------1--1-----------|
------2--2---1--1-------|----------------------|---------------------|
------------------------|----------------------|---------------------|


                                                                      
---------------------|------------------------|----------------------|
------1--1-----------|------------------------|------1--1------------|
---------------------|------2--2---1--1-------|----------------------|
---------------------|------------------------|----------------------|


                                                                     
---------------------|---------------------|------------------------|
------1--1-----------|------1--1-----------|------------------------|
---------------------|---------------------|------2--2---1--1-------|
---------------------|---------------------|------------------------|


                                                                      
----------------------------------|----------------------------------|
--1-1-1-1-1-1-1-1-0-0-0-0-0-0-0-0-|--0-0-0-0-3-3-3-3-0-0-0-0-0-0-0-0-|
----------------------------------|----------------------------------|
----------------------------------|----------------------------------|


                                                                      
----------------------------------|----------------------------------|
--1-1-1-1-1-1-1-1-0-0-0-0-0-0-0-0-|------------------1-1-1-1-1-1-1-1-|
----------------------------------|--2-2-2-2-1-1-1-1-----------------|
----------------------------------|----------------------------------|


                                                                      
----------------------------------|----------------------------------|
--1-1-1-1-1-1-1-1-0-0-0-0-0-0-0-0-|--0-0-0-0-3-3-3-3-0-0-0-0-0-0-0-0-|
----------------------------------|----------------------------------|
----------------------------------|----------------------------------|


                                                                      
----------------------------------|----------------------------------|
--1-1-1-1-1-1-1-1-0-0-0-0-0-0-0-0-|------------------1-1-1-1-1-1-1-1-|
----------------------------------|--2-2-2-2-1-1-1-1-----------------|
----------------------------------|----------------------------------|


                                                                      
----------------------------------|----------------------------------|
--1-1-1-1-1-1-1-1-0-0-0-0-0-0-0-0-|--0-0-0-0-3-3-3-3-0-0-0-0-0-0-0-0-|
----------------------------------|----------------------------------|
----------------------------------|----------------------------------|


                                                                      
----------------------------------|----------------------------------|
--1-1-1-1-1-1-1-1-0-0-0-0-0-0-0-0-|------------------1-1-1-1-1-1-1-1-|
----------------------------------|--2-2-2-2-1-1-1-1-----------------|
----------------------------------|----------------------------------|


                                                                      
----------------------------------|----------------------------------|
--1-1-1-1-1-1-1-1-0-0-0-0-0-0-0-0-|--0-0-0-0-3-3-3-3-0-0-0-0-0-0-0-0-|
----------------------------------|----------------------------------|
----------------------------------|----------------------------------|


                                                                      
----------------------------------|----------------------------------|
--1-1-1-1-1-1-1-1-0-0-0-0-0-0-0-0-|------------------1-1-1-1-1-1-1-1-|
----------------------------------|--2-2-2-2-1-1-1-1-----------------|
----------------------------------|----------------------------------|


                                                      
--------------------------|--------------------0--1--|
--1--3--3--3--3--3--3--3--|--1--3--3--3--3--3--------|
--------------------------|--------------------------|
--------------------------|--------------------------|


                                                                             
--------------------0--1--|----------------------|--------------------------|
--1--3--3--3--3--3--------|----------------------|--1--3--3--3--3--3--3--3--|
--------------------------|----------------------|--------------------------|
--------------------------|--4--4--3--1----------|--------------------------|


                                                                             
--------------------0--1--|--------------------0--1--|----------------------|
--1--3--3--3--3--3--------|--1--3--3--3--3--3--------|----------------------|
--------------------------|--------------------------|----------------------|
--------------------------|--------------------------|--4--4--3--1----------|


                                                      
--------------------------|--------------------0--1--|
-----3--3--3--3--3--3--3--|--1--3--3--3--3--3--------|
--4-----------------------|--------------------------|
--6-----------------------|--------------------------|


                                                                            
--------------------0--1--|----------------------|-------------------------|
--1--3--3--3--3--3--------|----------------------|-------------------------|
--------------------------|----------------------|-------0-----2--0-----0--|
--------------------------|--4--4--3--1----------|----4-----4--------4-----|


                                                                            
-------------------------|-------------------------|-----------------------|
-------------------------|-------------------------|-----------------------|
--------0----------------|-------0-----2--0-----0--|-----------------------|
--0--4-----4--2--0----0--|----4-----4--------4-----|--0--------0--0--2--4--|


                                                                              
-------------------------|-------------------------|-------------------------|
-------------------------|-------------------------|-------------------------|
-------0-----2--0-----0--|--------0----------------|-------0-----2--0-----0--|
----4-----4--------4-----|--0--4-----4--2--0----0--|----4-----4--------4-----|


                                                                              
-----------------------|--------------------------|--------------------------|
-----------------------|--------------------------|--------------------------|
-----------------------|--1--1--1--1--1--1--1--1--|--------------------------|
--0--------0--0--2--4--|--------------------------|--4--4--4--4--4--4--4--4--|


                                                      
--------------------------|--------------------------|
--------------------------|--------------------------|
--------------------------|--------------------------|
--2--2--2--2--2--2--2--2--|--4--4--4--4--4--4--4--4--|


                                                      
--------------------------|--------------------------|
--------------------------|--------------------------|
--1--1--1--1--1--1--1--1--|--------------------------|
--------------------------|--4--4--4--4--4--4--4--4--|


                                                      
--------------------------|--------------------------|
--------------------------|--------------------------|
--------------------------|--------------------------|
--2--2--2--2--2--2--2--2--|--4--4--4--4--4--4--4--4--|


                                                      
--------------------------|--------------------------|
--1--2--1-----1--2--1-----|--1--2--1-----1--2--1-----|
-----------4-----------1--|-----------4-----------1--|
--------------------------|--------------------------|


                                                      
--------------------------|--------------------------|
--1--2--1-----1--2--1-----|--1--2--1-----1--2--1-----|
-----------4-----------2--|-----------4-----------1--|
--------------------------|--------------------------|


                                                      
--------------------------|--------------------------|
--1--2--1-----1--2--1-----|--1--2--1-----1--2--1-----|
-----------4-----------1--|-----------4-----------1--|
--------------------------|--------------------------|


                                                      
--------------------------|--------------------------|
--1--2--1-----1--2--1-----|--1--2--1-----1--2--1-----|
-----------4-----------2--|-----------4-----------1--|
--------------------------|--------------------------|


                                                      
--------------------------|--------------------------|
--1--2--1-----1--2--1-----|--1--2--1-----1--2--1-----|
-----------4-----------1--|-----------4-----------1--|
--------------------------|--------------------------|


                                                                          
--------------------------|--------------------------|-------------------|
--1--2--1-----1--2--1-----|--1--2--1-----1--2--1-----|--1----------------|
-----------4-----------2--|-----------4-----------1--|-------------------|
--------------------------|--------------------------|-------------------|


                                                               
--6----------------|-------------------|----------------------|
--4----------------|-------------------|----------------------|
-------------------|-------------------|----------------------|
-------------------|--6----------------|--7----6----4----2----|


                                                                  
-----------------3--|----------------------|---------------------|
--1-----------------|----------------------|---------------------|
--------------------|-------1--------------|--1----------------1-|
--------------------|--4---------------2-4-|-----------------4---|


                                                               
--4--3--1--3--1-----|--1-----------------|-----------------3--|
-----------------4--|-----4--3--4--3-----|--1-----------------|
--------------------|-----------------4--|--------------------|
--------------------|--------------------|--------------------|


                                                                  
----------------------|---------------------|--4--3--1--3--1-----|
----------------------|---------------------|-----------------4--|
-------1--------------|--1----------------1-|--------------------|
--4---------------2-4-|-----------------4---|--------------------|


                                                                 
--1-----------------|-----------------3--|----------------------|
-----4--3--4--3-----|--1-----------------|----------------------|
-----------------4--|--------------------|-------1------------1-|
--------------------|--------------------|--4---------------2---|


                                                                
---------------------|--4--3--1--3--1-----|--1-----------------|
---------------------|-----------------4--|-----4--3--4--3-----|
--1----------------1-|--------------------|-----------------4--|
-----------------4---|--------------------|--------------------|


                                                                  
-----------------3--|----------------------|---------------------|
--1-----------------|----------------------|---------------------|
--------------------|-------1--------------|--1----------------1-|
--------------------|--4---------------2-4-|-----------------4---|


                                                               
--4--3--1--3--1-----|--1-----------------|-----------------3--|
-----------------4--|-----4--3--4--3-----|--1-----------------|
--------------------|-----------------4--|--------------------|
--------------------|--------------------|--------------------|


                                                                              
--1-1-1----------------|--------------------|-----------|--4--3--1-----------|
-----------------------|--------------------|-----------|-----------4--3-----|
---------1-----------1-|--2---------------2-|-----------|-----------------4--|
-----------------------|--------------------|--4--------|--------------------|


                                                                              
-----------------3--|--1-1-1----------------|--------------------|-----------|
--1-----------------|-----------------------|--------------------|-----------|
--------------------|---------1-----------1-|--2---------------2-|-----------|
--------------------|-----------------------|--------------------|--4--------|


                                                                               
--4--3--1-----------|---------------|--------------------|--3--3--3--3--3--1--|
-----------4--3-----|---------------|--------------------|--------------------|
-----------------4--|---------------|--------------------|--1--1--1--1--1-----|
--------------------|------------1--|--2--2--2--2--2--4--|-----------------4--|


                                                                
--4-3-1-3-1---1-----------|---------------|--------------------|
------------4---4-3-4-3---|---------------|--------------------|
------------------------4-|---------------|--------------------|
--------------------------|------------1--|--2--2--2--2--2--4--|


                                                                    
--3--3--3--3--3--1--|--4-3-1-3-1---1-----------|-------------------|
--------------------|------------4---4-3-4-3---|--1----------------|
--1--1--1--1--1-----|------------------------4-|-------------------|
-----------------4--|--------------------------|-------------------|


                                                             
-------------------|-------------------|--------------------|
--------------1----|-------------------|--------------------|
-------------------|--4----------------|----------4----4----|
-------------------|-------------------|--------------------|


                                                            
-------------------|-------------------|-------------------|
--1----------------|--------------1----|-------------------|
-------------------|-------------------|--4----------------|
-------------------|-------------------|-------------------|


                                                                           
--------------------|--------------------------|--------------------------|
--------------------|--1--1--1--1--1--1--1--1--|--1--1--1--1--1--1--1--1--|
----------4----4----|--------------------------|--------------------------|
--------------------|--------------------------|--------------------------|


                                                      
--------------------------|--------------------------|
--------------------------|--------------------------|
--4--4--4--4--4--4--4--4--|--4--4--4--4--4--4--4--4--|
--------------------------|--------------------------|


                                                      
--------------------------|--------------------------|
--1--1--1--1--1--1--1--1--|--1--1--1--1--1--1--1--1--|
--------------------------|--------------------------|
--------------------------|--------------------------|


                                                      
--------------------------|--------------------------|
--------------------------|--------------------------|
--4--4--4--4--4--4--4--4--|--4--4--4--4--4--4--4--4--|
--------------------------|--------------------------|


                                                      
--------------------------|--------------------------|
--1--1--1--1--1--1--1--1--|--1--1--1--1--1--1--1--1--|
--------------------------|--------------------------|
--------------------------|--------------------------|


                                                      
--------------------------|--------------------------|
--------------------------|--------------------------|
--4--4--4--4--4--4--4--4--|--4--4--4--4--4--4--4--4--|
--------------------------|--------------------------|


                                                      
--------------------------|--------------------------|
--1--1--1--1--1--1--1--1--|--1--1--1--1--1--1--1--1--|
--------------------------|--------------------------|
--------------------------|--------------------------|


                                                                             
--------------------------|--------------------------|----------------------|
--------------------------|--------------------------|----------------------|
--4--4--4--4--4--4--4--4--|--4--4--4--4--4--4--4--4--|--1----1----1----1----|
--------------------------|--------------------------|----------------------|


                                                                     
----------------------|----------------------|----------------------|
----------------------|----------------------|----------------------|
--1----1----1----3----|--4----4----4----4----|--4----4----4----4----|
----------------------|----------------------|----------------------|


                                                                     
----------------------|----------------------|----------------------|
--4----4----4----4----|--4----4----4----4----|----------------------|
----------------------|----------------------|----------------------|
----------------------|----------------------|--4----4----4----4----|


                                                                     
----------------------|----------------------|----------------------|
----------------------|----------------------|----------------------|
--0----0----0----4----|--1----1----1----1----|--1----1----1----3----|
----------------------|----------------------|----------------------|


                                                                     
----------------------|----------------------|----------------------|
----------------------|----------------------|--4----4----4----4----|
--4----4----4----4----|--4----4----4----4----|----------------------|
----------------------|----------------------|----------------------|


                                                                     
----------------------|----------------------|----------------------|
--4----4----4----4----|----------------------|----------------------|
----------------------|----------------------|--0----0----0----0----|
----------------------|--4----4----4----4----|----------------------|


                                                                                
-------------------------|--------------------------|--------------------------|
----1--1--1--1--1--1--1--|--1--1--1--1--2--2--1--1--|--------------------------|
-------------------------|--------------------------|--4--4--4--4--4--4--4--4--|
-------------------------|--------------------------|--------------------------|


                                                      
--------------------------|--------------------------|
--------------2--2--1--1--|--------------------------|
--4--4--4--4--------------|--2--2--2--2--2--2--2--2--|
--------------------------|--------------------------|


                                                      
--------------------------|--------------------------|
--------------2--2--1--1--|--------------------------|
--2--2--2--2--------------|--4--4--4--4--4--4--4--4--|
--------------------------|--------------------------|


                                                      
--------------------------|--------------------------|
--------------------------|--1--1--1--1--1--1--1--1--|
--4--4--4--4--4--4--4--4--|--------------------------|
--------------------------|--------------------------|


                                                      
--------------------------|--------------------------|
--1--1--1--1--2--2--1--1--|--------------------------|
--------------------------|--4--4--4--4--4--4--4--4--|
--------------------------|--------------------------|


                                                      
--------------------------|--------------------------|
--------------2--2--1--1--|--------------------------|
--4--4--4--4--------------|--2--2--2--2--2--2--2--2--|
--------------------------|--------------------------|


                                                      
--------------------------|--------------------------|
--------------2--2--1--1--|--------------------------|
--2--2--2--2--------------|--4--4--4--4--4--4--4--4--|
--------------------------|--------------------------|


                                                      
--------------------------|--------------------------|
--------------------------|--1--1--1--1--1--1--1--1--|
--4--4--4--4--4--4--4--4--|--------------------------|
--------------------------|--------------------------|


                                                      
--------------------------|--------------------------|
--1--1--1--1--2--2--1--1--|--------------------------|
--------------------------|--4--4--4--4--4--4--4--4--|
--------------------------|--------------------------|


                                                      
--------------------------|--------------------------|
--------------2--2--1--1--|--------------------------|
--4--4--4--4--------------|--2--2--2--2--2--2--2--2--|
--------------------------|--------------------------|


                                                      
--------------------------|--------------------------|
--------------2--2--1--1--|--------------------------|
--2--2--2--2--------------|--4--4--4--4--4--4--4--4--|
--------------------------|--------------------------|


                                                      
--------------------------|--------------------------|
--------------------------|--1--1--1--1--1--1--1--1--|
--4--4--4--4--4--4--4--4--|--------------------------|
--------------------------|--------------------------|


                                                      
--------------------------|--------------------------|
--1--1--1--1--2--2--1--1--|--------------------------|
--------------------------|--4--4--4--4--4--4--4--4--|
--------------------------|--------------------------|


                                                      
--------------------------|--------------------------|
--------------2--2--1--1--|--------------------------|
--4--4--4--4--------------|--2--2--2--2--2--2--2--2--|
--------------------------|--------------------------|


                                                      
--------------------------|--------------------------|
--------------2--2--1--1--|--------------------------|
--2--2--2--2--------------|--4--4--4--4--4--4--4--4--|
--------------------------|--------------------------|


                                                                   
--------------------------|-------------------|------------------||
--------------------------|--1----------------|------------------||
--4--4--4--4--4--4--4--4--|-------------------|------------------||
--------------------------|-------------------|------------------||





Comments


Popular Cradle Of Filth tabs & chords
Heaven Torn Asunder Bass Tabs
Lord Abortion 2 Bass Tabs
Saffron's Curse Bass Tabs
Dirge Inferno 2 Tabs
From The Cradle To Enslave Tabs
I Am The Thorn 1 Tabs
Lovesick For Mina 3 Tabs
Nymphetamine 2 Tabs
The Principle Of Evil Made Flesh Tabs
Tonight In Flames 1 Tabs


Song lyrics



↑ Back to top | Tablatures and chords are parodies/interpretations of the original songs. You may use it for private study, scholarship, research or language learning purposes only
© 2014 AZChords.com Contact us | Privacy policy | DMCA | Add/correct tabs | Request tabs | Top 50 tabs