» » »

Of Mist And Midnight Skies Tabs (ver.1)

Artists:  A B C D E F G H I J K L M N O P Q R S T U V W X Y Z # 

Of Mist And Midnight Skies Tabs (ver.1)

Cradle Of Filth
Rating:
0/5 (0 votes)

Hard to play? Try these video lessons and learn fast.
                CRADLE OF FILTH
'Of Mist And Midnight Skies'



  Nocturnal Omnipotency



 Tune down a whole step.



Figure A: play this 4 times.
--------------------------------------
--------------------------------------
--------------------------------------
--2-----6-----7-----------------------
--2-----6-----7-----7------6----------
--0-----4-----5-----------------------

Figure a:
----------------
----------------
----------------
--7-----5-------
--7-----5-------
--5-----3-------

Figure B:
-------------------5-----------------4---------------7---------------5---------------4-------------------
---------------------------------0m--2m--3---2m--0m--2---2m--3m--5---3m--2m--3---2m--0m--2----7--6--7----

---------------8--8--7--5--5--7--8--7--7--5--3--3--5--7--5--5--3--2-----7---

Figure C:
-------
-------
-------
--5---
--5---
--3---

Then play Figure B one more time.

Figure D: play this twice.
-------------------------------------------------
-------------------------------------------------
-------------------------------------------------
--2--7--6--7--6--8--------2--7--6--7--6----------
--2-----------------------2-----------------5----
--0-----------------------0----------------------

Figure E: play this twice.
-------------------------10--9--10--9--11----------------------------10--9--10--9--------------------
--2m2m2m2m---------------------------------2m2m2m2m--------------------------------------------------
--2m2m2m2m---------------------------------2m2m2m2m-------------------------------------------5------
--0m0m0m0m---------------------------------0m0m0m0m--------------------------------------------------

Then play Figure A twice.

Figure F: play this twice.
--2--------2----------------6---------6----------------7--------7-----------------------------
--2--------2----------------6---------6----------------7--------7----------------7---6--------
--0----0m--0--0m--0m--------4--4m-----4--4m--4m--------5--5m----5--5m--5m---------------------

Figure G: play this twice. Then, after the bass part, play it once more.

-----------------------------------|-----------
-----------------------------------|-----------
-----------------------------------|-----------
----------------------2------------|-----2-----
--2--5/6/5--3--4-----3--2----------|-----2-----
--0--3/4/3--1--2-------------------|-----0-----

Figure H: play this 4 times.
------------------------------------5h6p5p4--------------------------------------------4m---4m------
--2--5/6/5-------------------0----------------------------------------------2--5/6/5---4m---4m------
--0--3/4/3--0h1h2h3h4--------------------------------------------6p5p4p3----0--3/4/3---2m---2m------

Figure I: play this twice.
-----------------------1m...------------------------1m...-------------------
--0m...---3m...--------------0m...---3m...----------------1m...-------------

Figure J: play this twice.
--------------------------------------------------------
--------------------------------------------------------
--------------------------------------------------------
--------------3...------------------3...----------------
--2...--5...--1...----2...---5...---1...---3...---------
--0...--3...----------0...---3...----------1...---------

Figure K: play this twice.
--2...--0h2h3p0--0h2h3p0---2...---------------------------------
---------------------------------------------3h5p3p0h3----------

Then play Figure H twice.

Figure L:
--9...--1010-99----------------------10...--------10...--------10...---------------------
----------------------1010-99--8...----------8...----------8...----------8...------------

Figure M:
-----------------------------------
-----------------------------------
-----------------------------------
--/1m...---------------------------
--/3m...-----3m...----4m...--------
-------------1m...----6m...--------

Figure N: play this 4 times.
-------------------------
-------------------------
-------------------------
--2m...------------------
--2m...------------------
--0m...----3----1--------

Figure O:
-------------------------
-------------------------
-------------------------
--3m...----5m...---------
--3m...----5m...---------
--1m...----3m...---------

Then play Figure L + Figure M twice, the whole thing.

Figure P:
------------------------------------------------
------------------------------------------------
--2---------------------------------------------
--2----5---7--7--9--7--5--5--7--5--4------------
--0----5----------------------------------------
-------3----------------------------------------

Figure Q: play this 3 times.
------------------------------
------------------------------
--4-----4-----6---------------
--4-----4-----6-------4-------
--2-----2-----4-------4-------
----------------------2-------

Figure R:
----------------------------------
----------------------------------
--4-----4-----6-------------------
--4-----4-----6-------------------
--2-----2-----4-----5----4--------
----------------------------------

Figure S:
---------------------------------------------------------
---------------------------------------------------------
--4---4---2---2------------------------------------------
--4---4---2---2----5---5---------------------------------
--2---2---0---0----5---5---7--7--9--7--5--5--7--5--4-----
-------------------3---3---------------------------------

Then play Figure A twice and Figure F twice.

Figure T:
---------
---------
---------
---2-----
---2-----
---0-----
            
Hard to play? Try these video lessons and learn fast. | Correct




comments powered by Disqus
↑ Back to top | Tablatures and chords are parodies/interpretations of the original songs. You may use it for private study, scholarship, research or language learning purposes only