» » »

Nocturnal Supremacy Tabs (ver.2)

Artists:  A B C D E F G H I J K L M N O P Q R S T U V W X Y Z # 

Nocturnal Supremacy Tabs (ver.2)

Cradle Of Filth
Rating:
0/5 (0 votes)

Hard to play? Try these video lessons and learn fast.
                Riff 1 "Weak midnight promises..."
---------------------
---------------------
-7---6/7/6---6---8---
-7---6/7/6---6---8---
-5---4/5/4---4---6---
---------------------


Riff 2 "She sleeps beyond..."
--------------------------------------
--------------------------------------
--------------------------------------
--------------------------------------
-5...--6-5-6...--5-3...-1-0.-1.-3.-6.-
--------------------------------------

Riff 2 1/2 "The dead would..."
--------------------------------------
--------------------------------------
-7...--8-7-8...--7-5...-3-2.-3.-5.-8.-
--------------------------------------
--------------------------------------
--------------------------------------


Riff 2 Again "Twelfth moon arose..."


Riff 3 "Fear me not..."
---------------------------------------------
---------------------------------------------
---------------------------------------------
---------------------------------------------
-5---6-5-3------------------------1----3-1-3-
------------6---8-6-5--3---5-3-5-------------


Riff 4 "My promises wrought..."
-------------------------------------------------------------
-------------------------------------------------------------
-------------------------------------------------------------
-2-2-2---3/5-3---2-2-2---3-3-3---2-2-2---3/5-3---------------
-0-0-0---1/3-1---0-0-0---1-1-1---0-0-0---1/3-1---9---8---6-8-
-------------------------------------------------------------


Riff 2 Again "Princess lay down..."


Riff 5 "The Sun descends..."
-3.--4.--6.--4.--3.--4.--6.--4.----------------------------------
---------------------------------5.--6.--8.--6.--5.--6.--8.--6.--


Riff 6 "***ation..."
-----------------------------------------------------
-----------------------------------------------------
-----------------------------5----6-6----5----6-6----
-5----6-5-6----5----6-5-6----------------------------
-----------------------------------------------------
-----------------------------------------------------


Riff 1 Again "Deceivers dragged..."

Riff 4 Again 

(Solo ????)

Riff 7 " I am enamoured..."
-----------------------------------------------
-----------------------------------------------
-----------------------------------------------
-----------------------------------------------
---------------------1-------------------------
-111-3-111-3-111-3-2----111-3-111-3-111-3-2-0--


"I will crush them all..."
-----------------------------------------------
-----------------------------------------------
-----------------------------------------------
-----------------------------------------------
---------------------7-------------------------
-777-9-777-9-777-9-8----777-9-777-9-777-9-8-6--



"Rather dead forever..."
-----------------------------------------------
-----------------------------------------------
-----------------------------------------------
-----------------------------------------------
---------------------1-------------------------
-111-3-111-3-111-3-2----111-3-111-3-111-3-2-0--


Riff 2 Again
            
Hard to play? Try these video lessons and learn fast. | Correct




comments powered by Disqus
↑ Back to top | Tablatures and chords are parodies/interpretations of the original songs. You may use it for private study, scholarship, research or language learning purposes only