>
 >
Nocturnal Sumpremacy

Nocturnal Sumpremacy Bass Tabs

Cradle Of Filth - Nocturnal Sumpremacy chords, tabs, tablatures, lyrics

Guitar lessons | Add/correct | Request | Top 50 tabs Artists:  A B C D E F G H I J K L M N O P Q R S T U V W X Y Z 0-9

Nocturnal Sumpremacy Bass Tabs – Cradle Of Filth

CD, Sheet music, Poster

Do you like Nocturnal Sumpremacy? Share with your friends now
Bass Tabs
G||----------|-------------------|-------------------|-------------------|
D||----------|-------------------|-------------------|-------------------|
A||----------|--5----------------|--4----------------|--4----------------|
E||----------|-------------------|-------------------|-------------------|


                                                                                
-------------------|-------------------|-------------------|-------------------|
--1----------------|--0----------------|-------------------|-------------------|
-------------------|-------------------|--4----------------|--4----------------|
-------------------|-------------------|-------------------|-------------------|


                                                                                
-------------------|-------------------|-------------------|-------------------|
--1----------------|--0----------------|-------------------|-------------------|
-------------------|-------------------|--4----------------|--4----------------|
-------------------|-------------------|-------------------|-------------------|


                                                                          
-------------------|--------------------------|--------------------------|
--1----------------|--0--0--0--0--0--0-----0--|--------------------------|
-------------------|--------------------4-----|--4--4--4--4--4--4--4--4--|
-------------------|--------------------------|--------------------------|


                                                      
--------------------------|--------------------------|
--------------------------|--1--1--1--1--1--1--1--1--|
--4--4--4--4--4--4--4--4--|--------------------------|
--------------------------|--------------------------|


                                                      
--------------------------|--------------------------|
--0--0--0--0--0--0--0--0--|--------------------------|
--------------------------|--4--4--4--4--4--4--4--4--|
--------------------------|--------------------------|


                                                      
--------------------------|--------------------------|
--------------------------|--1--1--1--1--1--1--1--1--|
--4--4--4--4--4--4--4--4--|--------------------------|
--------------------------|--------------------------|


                                                      
--------------------------|--------------------------|
--0--0--0--0--0--0-----0--|--------------------------|
--------------------4-----|--4--4--4--4--4--4--4--4--|
--------------------------|--------------------------|


                                                      
--------------------------|--------------------------|
--------------------------|--1--1--1--1--1--1--1--1--|
--4--4--4--4--4--4--4--4--|--------------------------|
--------------------------|--------------------------|


                                                      
--------------------------|--------------------------|
--0--0--0--0--0--0-----0--|--------------------------|
--------------------4-----|--4--4--4--4--4--4--4--4--|
--------------------------|--------------------------|


                                                      
--------------------------|--------------------------|
--------------------------|--1--1--1--1--1--1--1--1--|
--4--4--4--4--4--4--4--4--|--------------------------|
--------------------------|--------------------------|


                                                                      
----------------------------------|----------------------------------|
--0-0-0-0-0-0-1-0-1-1-1-1-1-0-1-0-|------------------------------1-1-|
----------------------------------|--3-3-3-3-3-3-1-1-0-0-1-1-3-3-----|
----------------------------------|----------------------------------|


                                                                      
----------------------------------|----------------------------------|
--0-0-0-0-0-0-1-0-1-1-1-1-1-0-1-0-|------------------------------1-1-|
----------------------------------|--3-3-3-3-3-3-1-1-0-0-1-1-3-3-----|
----------------------------------|----------------------------------|


                                                                      
----------------------------------|----------------------------------|
--0-0-0-0-0-0-1-0-1-1-1-1-1-0-1-0-|------------------------------1-1-|
----------------------------------|--3-3-3-3-3-3-1-1-0-0-1-1-3-3-----|
----------------------------------|----------------------------------|


                                                                      
----------------------------------|----------------------------------|
--0-0-0-0-0-0-1-0-1-1-1-1-1-0-1-0-|------------------------------1-1-|
----------------------------------|--3-3-3-3-3-3-1-1-0-0-1-1-3-3-----|
----------------------------------|----------------------------------|


                                                                              
-------------------|------------------|-------------------|------------------|
--0----------------|------------------|--0----------------|------------------|
-------------------|------------------|-------------------|------------------|
-------------------|------------------|-------------------|------------------|


                                                                      
----------------------------------|----------------------------------|
--0-0-0-0-0-0-1-0-1-1-1-1-1-0-1-0-|------------------------------1-1-|
----------------------------------|--3-3-3-3-3-3-1-1-0-0-1-1-3-3-----|
----------------------------------|----------------------------------|


                                                                      
----------------------------------|----------------------------------|
--0-0-0-0-0-0-1-0-1-1-1-1-1-0-1-0-|------------------------------1-1-|
----------------------------------|--3-3-3-3-3-3-1-1-0-0-1-1-3-3-----|
----------------------------------|----------------------------------|


                                                                           
------------------------|------------------------|------------------------|
--0--0-1-0--------------|------------------------|--0--0-1-0--------------|
-----------3-1--1-0-1-0-|-------0---0-1--1-3-1-3-|-----------3-1--1-0-1-0-|
------------------------|--3--3---3--------------|------------------------|


                                                                           
------------------------|------------------------|------------------------|
------------------------|--0--0-1-0--------------|------------------------|
-------0---0-1--1-3-1-3-|-----------3-1--1-0-1-0-|-------0---0-1--1-3-1-3-|
--3--3---3--------------|------------------------|--3--3---3--------------|


                                                  
------------------------|------------------------|
--0--0-1-0--------------|------------------------|
-----------3-1--1-0-1-0-|-------0---0-1--1-3-1-3-|
------------------------|--3--3---3--------------|


                                                                       
-----------------------------------|----------------------------------|
--0-0-0-0-1-4-3-1-0-0-0-0-1--1--1--|--0-0-0-0-1-4-3-1-1-1-1-1-0---0-0-|
-----------------------------------|----------------------------3-----|
-----------------------------------|----------------------------------|


                                                                       
-----------------------------------|----------------------------------|
--0-0-0-0-1-4-3-1-0-0-0-0-1--1--1--|--0-0-0-0-1-4-3-1-1-1-1-1-0---0-0-|
-----------------------------------|----------------------------3-----|
-----------------------------------|----------------------------------|


                                                                       
-----------------------------------|----------------------------------|
--0-0-0-0-1-4-3-1-0-0-0-0-1--1--1--|--0-0-0-0-1-4-3-1-1-1-1-1-0---0-0-|
-----------------------------------|----------------------------3-----|
-----------------------------------|----------------------------------|


                                                                       
-----------------------------------|----------------------------------|
--0-0-0-0-1-4-3-1-0-0-0-0-1--1--1--|--0-0-0-0-1-4-3-1-1-1-1-1-0---0-0-|
-----------------------------------|----------------------------3-----|
-----------------------------------|----------------------------------|


                                                                      
----------------------------------|----------------------------------|
--0-0-0-0-0-0-1-0-1-1-1-1-1-0-1-0-|------------------------------1-1-|
----------------------------------|--3-3-3-3-3-3-1-1-0-0-1-1-3-3-----|
----------------------------------|----------------------------------|


                                                                      
----------------------------------|----------------------------------|
--0-0-0-0-0-0-1-0-1-1-1-1-1-0-1-0-|------------------------------1-1-|
----------------------------------|--3-3-3-3-3-3-1-1-0-0-1-1-3-3-----|
----------------------------------|----------------------------------|


                                                                      
----------------------------------|----------------------------------|
--0-0-0-0-0-0-1-0-1-1-1-1-1-0-1-0-|------------------------------1-1-|
----------------------------------|--3-3-3-3-3-3-1-1-0-0-1-1-3-3-----|
----------------------------------|----------------------------------|


                                                                      
----------------------------------|----------------------------------|
--0-0-0-0-0-0-1-0-1-1-1-1-1-0-1-0-|------------------------------1-1-|
----------------------------------|--3-3-3-3-3-3-1-1-0-0-1-1-3-3-----|
----------------------------------|----------------------------------|


                                                                  
---------------------|----------------------|--------------------|
-------0------1------|--3------1------0--1--|------0------1------|
---------------------|----------------------|--------------------|
--3------------------|----------------------|--------------------|


                                                                 
-------------------|-------0------1------|--3------1------0--1--|
--3----------------|---------------------|----------------------|
-------------------|--3------------------|----------------------|
-------------------|---------------------|----------------------|


                                                                    
-------0------1------|--8----7----5----3--5--|---------------------|
---------------------|-----------------------|-------0------1------|
--3------------------|-----------------------|---------------------|
---------------------|-----------------------|--3------------------|


                                                                
----------------------|--------------------|-------------------|
--3------1------0--1--|------0------1------|--3----------------|
----------------------|--------------------|-------------------|
----------------------|--------------------|-------------------|


                                                                   
-------0------1------|--3------1------0--1--|-------0------1------|
---------------------|----------------------|---------------------|
--3------------------|----------------------|--3------------------|
---------------------|----------------------|---------------------|


                                                                              
--8----7----5----3--5--|--------------------------|--------------------------|
-----------------------|--------------------------|--------------------------|
-----------------------|--------------------------|--------------------------|
-----------------------|--3--3--3--3--3--3--3--3--|--3--3--3--3--3--3--3--3--|


                                                      
--------------------------|--------------------------|
--------------------------|--------------------------|
--------------------------|--------------------------|
--3--3--3--3--3--3--3--3--|--3--3--3--3--3--3--3--3--|


                                                      
--------------------------|--------------------------|
--------------------------|--------------------------|
--3--3--3--3--3--3--3--3--|--3--3--3--3--3--3--3--3--|
--------------------------|--------------------------|


                                                      
--------------------------|--------------------------|
--------------------------|--1--1--0--0--------------|
--3--3--3--3--3--3--3--3--|--------------3--3--1--1--|
--------------------------|--------------------------|


                                                      
--------------------------|--------------------------|
--------------------------|--------------------------|
--------------------------|--------------------------|
--3--3--3--3--3--3--3--3--|--3--3--3--3--3--3--3--3--|


                                                      
--------------------------|--------------------------|
--------------------------|--------------------------|
--------------------------|--------------------------|
--3--3--3--3--3--3--3--3--|--3--3--3--3--3--3--3--3--|


                                                      
--------------------------|--------------------------|
--------------------------|--------------------------|
--3--3--3--3--3--3--3--3--|--3--3--3--3--3--3--3--3--|
--------------------------|--------------------------|


                                                      
--------------------------|--------------------------|
--------------------------|--1--1--0--0--------------|
--3--3--3--3--3--3--3--3--|--------------3--3--1--1--|
--------------------------|--------------------------|


                                                      
--------------------------|--------------------------|
--------------------------|--------------------------|
--------------------------|--------------------------|
--3--3--3--3--3--3--3--3--|--3--3--3--3--3--3--3--3--|


                                                      
--------------------------|--------------------------|
--------------------------|--------------------------|
--------------------------|--------------------------|
--3--3--3--3--3--3--3--3--|--3--3--3--3--3--3--3--3--|


                                                      
--------------------------|--------------------------|
--------------------------|--------------------------|
--3--3--3--3--3--3--3--3--|--3--3--3--3--3--3--3--3--|
--------------------------|--------------------------|


                                                      
--------------------------|--------------------------|
--------------------------|--1--1--0--0--------------|
--3--3--3--3--3--3--3--3--|--------------3--3--1--1--|
--------------------------|--------------------------|


                                                      
--------------------------|--------------------------|
--------------------------|--------------------------|
--------------------------|--------------------------|
--3--3--3--3--3--3--3--3--|--3--3--3--3--3--3--3--3--|


                                                      
--------------------------|--------------------------|
--------------------------|--------------------------|
--------------------------|--------------------------|
--3--3--3--3--3--3--3--3--|--3--3--3--3--3--3--3--3--|


                                                      
--------------------------|--------------------------|
--------------------------|--------------------------|
--3--3--3--3--3--3--3--3--|--3--3--3--3--3--3--3--3--|
--------------------------|--------------------------|


                                                                          
--------------------------|--------------------------|-------------------|
--------------------------|--1--1--0--0--------------|-------------------|
--3--3--3--3--3--3--3--3--|--------------3--3--1--1--|-------------------|
--------------------------|--------------------------|--3----------------|


                                                                
---------------------|-------------------|---------------------|
---------------------|-------------------|---------------------|
----------0-----1----|-------------------|----------------1----|
-------------3-------|--3----------------|----------4--3-------|


                                                             
-------------------|--------------------|-------------------|
-------------------|--------------------|-------------------|
--3----------------|----------4----4----|--3----------------|
-------------------|--------------------|-------------------|


                                                               
--------------------|-------------------|---------------------|
--------------------|-------------------|---------------------|
----------4----4----|-------------------|----------0-----1----|
--------------------|--3----------------|-------------3-------|


                                                              
-------------------|---------------------|-------------------|
-------------------|---------------------|-------------------|
-------------------|----------------1----|--3----------------|
--3----------------|----------4--3-------|-------------------|


                                                              
--------------------|-------------------|--------------------|
--------------------|-------------------|--------------------|
----------4----4----|--3----------------|----------4----4----|
--------------------|-------------------|--------------------|


                                                      
--------------------------|--------------------------|
--0--0--0--0--0--0-----0--|--------------------------|
--------------------4-----|--4--4--4--4--4--4--4--4--|
--------------------------|--------------------------|


                                                      
--------------------------|--------------------------|
--------------------------|--1--1--1--1--1--1--1--1--|
--4--4--4--4--4--4--4--4--|--------------------------|
--------------------------|--------------------------|


                                                      
--------------------------|--------------------------|
--0--0--0--0--0--0--0--0--|--------------------------|
--------------------------|--4--4--4--4--4--4--4--4--|
--------------------------|--------------------------|


                                                      
--------------------------|--------------------------|
--------------------------|--1--1--1--1--1--1--1--1--|
--4--4--4--4--4--4--4--4--|--------------------------|
--------------------------|--------------------------|


                                                      
--------------------------|--------------------------|
--0--0--0--0--0--0-----0--|--------------------------|
--------------------4-----|--4--4--4--4--4--4--4--4--|
--------------------------|--------------------------|


                                                      
--------------------------|--------------------------|
--------------------------|--1--1--1--1--1--1--1--1--|
--4--4--4--4--4--4--4--4--|--------------------------|
--------------------------|--------------------------|


                                                      
--------------------------|--------------------------|
--0--0--0--0--0--0-----0--|--------------------------|
--------------------4-----|--4--4--4--4--4--4--4--4--|
--------------------------|--------------------------|


                                                      
--------------------------|--------------------------|
--------------------------|--1--1--1--1--1--1--1--1--|
--4--4--4--4--4--4--4--4--|--------------------------|
--------------------------|--------------------------|


                                                                       
-----------------------------------|----------------------------------|
--0-0-0-0-1-4-3-1-0-0-0-0-1--1--1--|--0-0-0-0-1-4-3-1-1-1-1-1-0---0-0-|
-----------------------------------|----------------------------3-----|
-----------------------------------|----------------------------------|


                                                                       
-----------------------------------|----------------------------------|
--0-0-0-0-1-4-3-1-0-0-0-0-1--1--1--|--0-0-0-0-1-4-3-1-1-1-1-1-0---0-0-|
-----------------------------------|----------------------------3-----|
-----------------------------------|----------------------------------|


                                                                       
-----------------------------------|----------------------------------|
--0-0-0-0-1-4-3-1-0-0-0-0-1--1--1--|--0-0-0-0-1-4-3-1-1-1-1-1-0---0-0-|
-----------------------------------|----------------------------3-----|
-----------------------------------|----------------------------------|


                                                                       
-----------------------------------|----------------------------------|
--0-0-0-0-1-4-3-1-0-0-0-0-1--1--1--|--0-0-0-0-1-4-3-1-1-1-1-1-0---0-0-|
-----------------------------------|----------------------------3-----|
-----------------------------------|----------------------------------|


                                                          
----------------------------|----------------------------|
--0-2--2-2--2-2-2--2--3--3--|--0-2--2-2--2-2-2--2--3--3--|
----------------------------|----------------------------|
----------------------------|----------------------------|


                                                                      
----------------------------------|----------------------------------|
--0-2-2-2-2-2-2-2-2-2-2-2-3-3-3-3-|--0-2-2-2-2-2-2-2-2-2-2-2-3-3-3-3-|
----------------------------------|----------------------------------|
----------------------------------|----------------------------------|


                                                                      
----------------------------------|----------------------------------|
--0-2-2-2-2-2-2-2-2-2-2-2-3-3-3-3-|--0-2-2-2-2-2-2-2-2-2-2-2-3-3-3-3-|
----------------------------------|----------------------------------|
----------------------------------|----------------------------------|


                                                                    
---------------------------------|---------------------------------|
------------------------------0--|------------------------------0--|
--1-1-1-1-2-1-1-1-2-1-1-1-2-0----|--1-1-1-1-2-1-1-1-2-1-1-1-2-0----|
---------------------------------|---------------------------------|


                                                                      
----------------------------------|----------------------------------|
--0-2-2-2-2-2-2-2-2-2-2-2-3-3-3-3-|--0-2-2-2-2-2-2-2-2-2-2-2-3-3-3-2-|
----------------------------------|----------------------------------|
----------------------------------|----------------------------------|


                                                                      
----------------------------------|----------------------------------|
--0-0-0-0-0-0-1-0-1-1-1-1-1-0-1-0-|------------------------------1-1-|
----------------------------------|--3-3-3-3-3-3-1-1-0-0-1-1-3-3-----|
----------------------------------|----------------------------------|


                                                                      
----------------------------------|----------------------------------|
--0-0-0-0-0-0-1-0-1-1-1-1-1-0-1-0-|------------------------------1-1-|
----------------------------------|--3-3-3-3-3-3-1-1-0-0-1-1-3-3-----|
----------------------------------|----------------------------------|


                                                                      
----------------------------------|----------------------------------|
--0-0-0-0-0-0-1-0-1-1-1-1-1-0-1-0-|------------------------------1-1-|
----------------------------------|--3-3-3-3-3-3-1-1-0-0-1-1-3-3-----|
----------------------------------|----------------------------------|


                                                                      
----------------------------------|----------------------------------|
--0-0-0-0-0-0-1-0-1-1-1-1-1-0-1-0-|------------------------------1-1-|
----------------------------------|--3-3-3-3-3-3-1-1-0-0-1-1-3-3-----|
----------------------------------|----------------------------------|


                                                                              
-------------------|------------------|-------------------|------------------|
--0----------------|------------------|--0----------------|------------------|
-------------------|------------------|-------------------|------------------|
-------------------|------------------|-------------------|------------------|


                     
-------------------||
--0----------------||
-------------------||
-------------------||





Comments


Popular Cradle Of Filth tabs & chords
Babalon A.D. (So Glad For The Madness) Bass Tabs
Twisted Nails Of Faith Bass Tabs
All Hope In Eclipse 2 Tabs
Beauty Slept In Bodom Tabs
Cthulhu Dawn Part One Tabs
Darkness Incarnate Tabs
Forgive Me Father I Have Sinned 1 Tabs
Her Ghost In The Fog (Intro) Tabs
Malice Through The Looking Glass Tabs
Manticore Tabs


Song lyrics



↑ Back to top | Tablatures and chords are parodies/interpretations of the original songs. You may use it for private study, scholarship, research or language learning purposes only
© 2014 AZChords.com Contact us | Privacy policy | DMCA | Add/correct tabs | Request tabs | Top 50 tabs