» » »

Mannequin Bass tabs (ver.1)

Artists:  A B C D E F G H I J K L M N O P Q R S T U V W X Y Z # 

Mannequin Bass tabs (ver.1)

Cradle Of Filth
Rating:
0/5 (0 votes)

Hard to play? Try these video lessons and learn fast.
                (1)
Cradle of Filth
Mannequin
***ation and a Day


Tuning standard (E A D G)

X = Dead note
~ = Let Ring out
S= Strum (or Pick) Hard

Sarah’s Intro

Riff 1 (2x) 0:13

G-------------------------------------------------
D------8-9-8-8-9—8-9-8-9-11-9-11----------
A-------------------------------------------------
E-------------------------------------------------

G------------------------------------------------
D------8-9-8-8-9—8-9-8-9—11-9-8-------
A-----------------------------------------------
E-----------------------------------------------

Riff 2 (2x) 0:36

G---------------7-----------------------------------------------
D-----9-8-5-5 –-5-8-9--------------6-8-9-------------------
A-------------------------7----10-5---------6-8-9-8-9 8989-
E----------------------------8-----------------------------------

Riff 3 (2x) 0:59

G------------------------------------------------------------------
D------------------------------------------------------------------
A------------------------------------------------------------------
E---8x-8x 8x-9---8x-8x-8x—8x-8x-8x-9-8-7-6-8-7-------

G-------------------------------------------------------------------------
D-------------------------------------------------------------------------
A-------------------------------------------------------------------------
E---8x-8x 8x-9---8x-8x-8x—8x-8x-8x-13-12-11-10-11-12-11--


Riff 1 (2x) 1:21


Riff 2 (2x) 1:44


Riff 3 (2x) 2:06





Riff 4 (1x) 2:29

G------------------------------------------------------------------
D-------------------------------------------------------------------
A----------------7~ --6~ ------------6~-7~---8~--9~--7~--6~-
E------6~ --5~ ------------8~ --7~ -------------------------------

Riff 5 (2x) 2:40

G---------------------------------------------------------------------------------
D-----------------------------------------------------------------------------
A-----------------------------------------------------------------------------
E-S8-7-6-5-6-7-6-5-6—S8-7-6-5-6-7-6-5-6—S5-4-3-2-3-4-3-2-3—S5-4-3-2-3-4-3-2-3-


G--------------------------------------------------------------------------------
D--------------------------------------------------------------------------------
A--- S6-5-4-3-4-5-4-3-4—S6-5-4-3-4-5-4-3-4—S9-8-7-6-7-8-7-6-7—S9-8-7-6-7-8-7-6-7-
E--------------------------------------------------------------------------------
Midi-tracked Guitar Fill 3:03

-For this is sounds like the bass is behind it but it isn’t. It is just the delay on the Midi tack.

Riff 1 (2x) 3:14

Riff 2 (4x) 3:37

And Your Done! 

For this song timing is everything one you have it down it is not hard at all. Good Luck!
            
Hard to play? Try these video lessons and learn fast. | Correct




comments powered by Disqus
↑ Back to top | Tablatures and chords are parodies/interpretations of the original songs. You may use it for private study, scholarship, research or language learning purposes only