>
 >
Mannequin 1

Mannequin 1 Bass Tabs

Cradle Of Filth - Mannequin 1 chords, tabs, tablatures, lyrics

Guitar lessons | Add/correct | Request | Top 50 tabs Artists:  A B C D E F G H I J K L M N O P Q R S T U V W X Y Z 0-9

Mannequin 1 Bass Tabs – Cradle Of Filth

CD, Sheet music, Poster

Do you like Mannequin 1? Share with your friends now
Bass Tabs
Cradle of Filth
Mannequin
***ation and a Day


Tuning standard (E A D G)

X = Dead note
~ = Let Ring out
S= Strum (or Pick) Hard

Sarahs Intro

Riff 1 (2x) 0:13

G-------------------------------------------------
D------8-9-8-8-98-9-8-9-11-9-11----------
A-------------------------------------------------
E-------------------------------------------------

G------------------------------------------------
D------8-9-8-8-98-9-8-911-9-8-------
A-----------------------------------------------
E-----------------------------------------------

Riff 2 (2x) 0:36

G---------------7-----------------------------------------------
D-----9-8-5-5 -5-8-9--------------6-8-9-------------------
A-------------------------7----10-5---------6-8-9-8-9 8989-
E----------------------------8-----------------------------------

Riff 3 (2x) 0:59

G------------------------------------------------------------------
D------------------------------------------------------------------
A------------------------------------------------------------------
E---8x-8x 8x-9---8x-8x-8x8x-8x-8x-9-8-7-6-8-7-------

G-------------------------------------------------------------------------
D-------------------------------------------------------------------------
A-------------------------------------------------------------------------
E---8x-8x 8x-9---8x-8x-8x8x-8x-8x-13-12-11-10-11-12-11--


Riff 1 (2x) 1:21


Riff 2 (2x) 1:44


Riff 3 (2x) 2:06





Riff 4 (1x) 2:29

G------------------------------------------------------------------
D-------------------------------------------------------------------
A----------------7~ --6~ ------------6~-7~---8~--9~--7~--6~-
E------6~ --5~ ------------8~ --7~ -------------------------------

Riff 5 (2x) 2:40

G---------------------------------------------------------------------------------
D-----------------------------------------------------------------------------
A-----------------------------------------------------------------------------
E-S8-7-6-5-6-7-6-5-6S8-7-6-5-6-7-6-5-6S5-4-3-2-3-4-3-2-3S5-4-3-2-3-4-3-2-3-


G--------------------------------------------------------------------------------
D--------------------------------------------------------------------------------
A--- S6-5-4-3-4-5-4-3-4S6-5-4-3-4-5-4-3-4S9-8-7-6-7-8-7-6-7S9-8-7-6-7-8-7-6-7-
E--------------------------------------------------------------------------------
Midi-tracked Guitar Fill 3:03

-For this is sounds like the bass is behind it but it isnt. It is just the delay on the Midi tack.

Riff 1 (2x) 3:14

Riff 2 (4x) 3:37

And Your Done! 

For this song timing is everything one you have it down it is not hard at all. Good Luck!





Comments


Popular Cradle Of Filth tabs & chords
Cthulhu Dawn 2 Bass Tabs
Nemesis Bass Tabs
Sleepless Bass Tabs
To Eve The Art Of Witchcraft Bass Tabs
Bloody Tears Intro Tabs
Devil Woman Tabs
Dusk And Her Embrace 2 Tabs
Gabrielle Tabs
Gabrielle 1 Tabs
Libertina Grimm Tabs


Song lyrics



↑ Back to top | Tablatures and chords are parodies/interpretations of the original songs. You may use it for private study, scholarship, research or language learning purposes only
© 2014 AZChords.com Contact us | Privacy policy | DMCA | Add/correct tabs | Request tabs | Top 50 tabs