» » »

Cradle Of Filth, Malice Through The Looking Glass Bass tabs (ver.1)

Artists:  A B C D E F G H I J K L M N O P Q R S T U V W X Y Z # 

Malice Through The Looking Glass Bass tabs (ver.1)

Cradle Of Filth Tabs
 Rating:
4/5 (4 votes)
Malice Through The Looking Glass  lessons Tabs too difficult? Try these video lessons and learn fast
1
                (1)
Malice Through The Looking Glass-CoF
Standard Tuning
Dusk and Her Embrace

Intro

A-7*----4*----8*-------------------4*----8*---3---1
E-----------------------8*----0*-------------------------4

Riff 1
When Dani Goes aaaaaaarrrrrrrgggggggghhhhhh 

A-----(4)-----(8)
E-(0)--------------[8]----{6}---{4}       X2

Riff 2
When Dani Starts To Sing-

E-6-5-3—3-5-6—6-5-3-6-5-3—6-5-3-3-3-3
Repeat until Drums Go

Then 

D-----5------
A----------
E—3-------Do this X10

D--------8--------8------3-------3--------3-----------7------7-------7
A-----------------------------------------------------------------------
E---6---------6------1--------1-------1----------5--------5-----5---

D------8------8------8
A----------------------
E—6------6------6---  ßJust do this bit twice

When it goes fast again-

D------5------------------------------------
A-------------------------------------------
E---3------3---3----3—5—6---1—5--6

When Dani Goes aaaarrrrggggghhh again play riff one until song ends!



Tab Formulation
Notes in ( ) =Play note x20
Notes in [ ] =Play note x10
Notes in{ }=Play notes x5
* means hold
There are no special teqniques used in this song just try and get the timing right in riff 1 but I’m sure you will get it, have fun!
M A R I L Y N M A N S O N R U L E S
            
Submit corrections

comments powered by Disqus
↑ Back to top | Cradle Of Filth Bass for Malice Through The Looking Glass. Lyrics for acoustic guitar and electric guitar. 1 Tablatures and chords are parodies/interpretations of the original songs. You may use it for private study, scholarship, research or language learning purposes only