>
 >
Malice Through The Looking Glass

Malice Through The Looking Glass Guitar Tabs

Cradle Of Filth - Malice Through The Looking Glass chords, tabs, tablatures, lyrics

Guitar lessons | Add/correct | Request | Top 50 tabs Artists:  A B C D E F G H I J K L M N O P Q R S T U V W X Y Z 0-9

Malice Through The Looking Glass Guitar Tabs – Cradle Of Filth

CD, Sheet music, Poster

Do you like Malice Through The Looking Glass? Share with your friends now
Bass TabsTabs
Tablature by Lord Johnie


Tune both guitars down a step (D G C F A D)

0:40 - 1:06 : 2x

g -------------------------------------------------------------------------------
t -------------------------------------------------------------------------------
r --------------------6666-6666-6666-6666---------------------4444-4444-3333-----
1 4444-4444-4444-4444-6666-6666-6666-6666-5555-5555-5555-5555-4444-4444-3333-5555
& 4444-4444-4444-4444-4444-4444-4444-4444-5555-5555-5555-5555-2222-2222-1111-5555
2 2222-2222-2222-2222---------------------3333-3333-3333-3333----------------3333

1:07 - 1:31 : Guitar #1 4x ; Guitar #2 only first time

g --------------------------------------------------------
t --------------------------------------------------------
r --------------------------------------------------------
. 10---9---7-------7--9--10--10--9--7--10--9--7--10-9-7---
# 10---9---7-------7--9--10--10--9--7--10--9--7--10-9-7---
1 -8---7---5-------5--7---8---8--7--5---8--7--5---8-7-5---

g --------------------------------------------------------
t --------------------------------------------------------
r -5---4---2-------2--4---5---5--4--2---5--4--2---5-4-2---
. --------------------------------------------------------
# --------------------------------------------------------
2 --------------------------------------------------------

1:32 - 1:33 : 1x

g ----------
t ----------
r ----------
1 7-7-7-7---
& 7-7-7-7---
2 5-5-5-5---

1:57 - 2:41 : 4x

g --------------------------------------------------------
t --------------------------------------------------------
r 5---4---2--------2--4--5--5--4--2--5--4--2--5-4-2-------
. --------------------------------------------------------
# --------------------------------------------------------
1 --------------------------------------------------------

only first time and third

g --------5--------5--7--8--8--7--5--8--7--5--8-7-5-------
t ----3---------------------------------------------------
r 5-------------------------------------------------------
. --------------------------------------------------------
# --------------------------------------------------------
2 --------------------------------------------------------

 only in second times and fourth
g --------5--------5--7--8--8--7--5--8--7--5--12-10-8-----
t ----3---------------------------------------------------
r 5-------------------------------------------------------
. --------------------------------------------------------
# --------------------------------------------------------
2 --------------------------------------------------------


2:42 : 1x

g --------------
t --------------
r 5\------------
. --------------
# --------------
1 --------------
/
/
g 8\------------
t --------------
r --------------
. --------------
# --------------
2 --------------

3:05 - 3:09 : play four times

g -------------------------------------------------------------------
t -------------------------------------------------------------------
r 5-4-2-4-5--4--2------------------5-4-2-4-5-7-7--5--4---------------
. -------------------2--3-5--3-2------------------------2--3-5--3-2--
# ----------------0--------------0----------------------------------0
1 -------------------------------------------------------------------


g --------5--------5--7--8--8--7--5--8--7--5--8-7-5------------------
t ----3--------------------------------------------------------------
r 5------------------------------------------------------------------
. -------------------------------------------------------------------
# -------------------------------------------------------------------
2 -------------------------------------------------------------------

3:53 - 3:56 : 1x

g ------------------------------
t ------------------------------
r ------------------------------
1 10--9--7--10--9--7--10-9-7----
& 10--9--7--10--9--7--10-9-7----
2 -8--7--5---8--7--5---8-7-5----

3:57 - 4:16 : Guitar #1 3x ; Guitar #2 only third time

g --------------------------------------------------------
t --------------------------------------------------------
r --------------------------------------------------------
. 10---9---7-------7--9--10--10--9--7--10--9--7--10-9-7---
# 10---9---7-------7--9--10--10--9--7--10--9--7--10-9-7---
1 -8---7---5-------5--7---8---8--7--5---8--7--5---8-7-5---


g --------------------------------------------------------
t --------------------------------------------------------
r -5---4---2-------2--4---5---5--4--2---5--4--2---5-4-2---
. --------------------------------------------------------
# --------------------------------------------------------
2 --------------------------------------------------------

4:17 - 5:25 : 5x , after second play goes sound down

g -------------------------------------------------------------------------------
t -------------------------------------------------------------------------------
r --------------------6666-6666-6666-6666---------------------4444-4444-3333-----
1 4444-4444-4444-4444-6666-6666-6666-6666-5555-5555-5555-5555-4444-4444-3333-5555
& 4444-4444-4444-4444-4444-4444-4444-4444-5555-5555-5555-5555-2222-2222-1111-5555
2 2222-2222-2222-2222---------------------3333-3333-3333-3333----------------3333





Comments


Popular Cradle Of Filth tabs & chords
Beneath The Howling Stars Bass Tabs
Mannequin Drum Tabs
Better To Reign In Hell Tabs
Born In A Burial Gown Tabs
Huge Onyx Wings Behind Despair Tabs
Nevermore 2 Tabs
Nymphetamine 4 Tabs
Temptation 1 Tabs
The Promise Of Fever 2 Tabs
The Raping Of Faith Tabs


Song lyrics



↑ Back to top | Tablatures and chords are parodies/interpretations of the original songs. You may use it for private study, scholarship, research or language learning purposes only
© 2014 AZChords.com Contact us | Privacy policy | DMCA | Add/correct tabs | Request tabs | Top 50 tabs