>
 >
Her Ghost In The Fog 4

Her Ghost In The Fog 4 Guitar Tabs

Cradle Of Filth - Her Ghost In The Fog 4 chords, tabs, tablatures, lyrics

Guitar lessons | Add/correct | Request | Top 50 tabs Artists:  A B C D E F G H I J K L M N O P Q R S T U V W X Y Z 0-9

Her Ghost In The Fog 4 Guitar Tabs – Cradle Of Filth

CD, Sheet music, Poster

Do you like Her Ghost In The Fog 4? Share with your friends now
Bass TabsBass Tabs v2Bass Tabs v3TabsTabs v2Tabs v3Tabs v4Tabs v5Tabs v6
-------------------------- CrAdLe 0F fIlTh ---------------------------------|
------------------------HeR GhOsT iN ThE fOg--------------------------------|
-------------------------------MiDiAn---------------------------------------|

               ------------ PaUl ToNkS --------------
               Aka AtomiC / DetH / Tiduz
Questions or comments welcome.

Im sure most, if not all of this is correct.
Made for standard Tuning.


| /  slide up
| \  slide down
| h  hammer-on
| p  pull-off
| ~  vibrato
| +  harmonic
| x  Mute note


Keyboard Intro-
|-------------------------------------------------------------------------------|
|-------------------------------------------------------------------------------|
|-------------------------------------------------------------------------------|
|--------------4------6---------6-----------------------------------------------|
|--3-------6-5-----------8---------7--------------------------------------------|
|-------------------------------------------------------------------------------|


intro
Gtr 1 / Gtr 2
|------------------------------------------------------------------------|
|------------------------------------------------------------------------|
|------------------------------------------------------------------------|
|-x//-2222222222222222666666666666666655555555555555554444444444444444---|
|-x//-2222222222222222666666666666666655555555555555554444444444444444---|
|-----0000000000000000444444444444444433333333333333332222222222222222---|
  .  .
Pick SLide


Gtr 1
|-------------------------------------------------------------------|
|-------------------------------------------------------------------|
|-----666555------666555--------------------------------------------|
|--444------666777------666-----------------------------------------|
|-------------------------------------------------------------------|
|-------------------------------------------------------------------|

Gtr 1
|-------------------------------------------------------------------------------|
|-------------------------------------------------------------------------------|
|-------------------------------------------------------------------------------|
|--2h3p2--2h3p2--2h3p2--2h3p2--2h3p2--2h3p2--2h3p2--2h3p2-----------------------|
|-------------------------------------------------------------------------------|
|-------------------------------------------------------------------------------|


Main Chorus
Gtr 1 / 2
   PM [....]     [....]     [....]     [....]
|-------------------------------------------------------------------------------|
|-------------------------------------------------------------------------------|
|-----------------------------------------------------------3---3---2---2---3---|
|--7---7777---7---7777---5---5555---5---5555---3-5-3-2-5--5---5---3---1---0-----|
|--5---5555---5---5555---3---3333---3---3333------------------------------------|
|-------------------------------------------------------------------------------|
   PM [....]     [....]     [....]     [....]
|---------------------------------------------------------------------------------|
|-----------------------------------------------------------3---3---3---3---3-----|
|-------------------------------------------------------------5---3---1---0-------|
|--7---7777---7---7777---5---5555---5---5555---3-5-3-2-5--5-----------------------|
|--5---5555---5---5555---3---3333---3---3333--------------------------------------|
|---------------------------------------------------------------------------------|


During:
We shall see..."
She was divinity's creature
That kissed in cold mirrors
A Queen of Snow
Far beyond compare
Lips attuned to symmetry
Sought Her everywhere
Dark liqoured eyes
An Arabian nightmare..........

                             |
 Gtr 1                      \ /
|-----------------------------------------------------------------------------|
|-----------------------------------------------------------------------------|
|--7~-------13~-------10----9---7~--------------------------------------------|
|--7~-------13~-------10----9---7---------------------------------------------|
|--5~-------11~-------8-----7---5~--------------------------------------------|
|-----------------------------------------------------------------------------|

Gtr 2
|--10----8-----10----8----10----8----10----8----6---6---8---8-----------------|
|-----10---10-----10---10----10---10----10---10---8---8---8---8---------------|
|-----------------------------------------------------------------------------|
|-----------------------------------------------------------------------------|
|-----------------------------------------------------------------------------|
|-----------------------------------------------------------------------------|

Gtr 1/2
PM[. . . . . . . . . . . . . . . . . . . . . . . . . . . . .]              1:31
|------------------------------------------------------------------------------------------------|
|------------------------------------------------------------------------------------------------|
|------------------------------------------------------------13---15-13-12-13-12-10-9-------10---|
|------------------------------------------------------------13---15-13-12-13-12-10-9-------10---|
|------------------------------------------------------------11---13-11-10-11-10-8--7-------8----|
|--0-0-0-0-0-0-0-0-0-0-0-0-0-0-0-0-0-0-0-0-0-0-0-0-0-0-0-0-0-------------------------------------|

Gtr 1/2
PM[. . . . . . . . . . . . . . . . . . . . . . . . . . . . .]
|-------------------------------------------------------------------------------------------------|
|-------------------------------------------------------------------------------------------------|
|------------------------------------------------------------13---15-13-12-13-12-10-9--------10---|
|------------------------------------------------------------13---15-13-12-13-12-10-9--------10---|
|------------------------------------------------------------11---13-11-10-11-10-8--7--------8----|
|--0-0-0-0-0-0-0-0-0-0-0-0-0-0-0-0-0-0-0-0-0-0-0-0-0-0-0-0-0--------------------------------------|


Gtr 1/2
PM[. . . . . . . . . . . . . . . . . . . . . . . . . . . . .]
|------------------------------------------------------------------------------------------------|
|------------------------------------------------------------------------------------------------|
|------------------------------------------------------------13---15-13-12-13-12-10-9-------10---|
|------------------------------------------------------------13---15-13-12-13-12-10-9-------10---|
|------------------------------------------------------------11---13-11-10-11-10-8--7-------8----|
|--0-0-0-0-0-0-0-0-0-0-0-0-0-0-0-0-0-0-0-0-0-0-0-0-0-0-0-0-0-------------------------------------|

Gtr 1/2
PM[. . . . . . . . . . . . . . . . . . . . . . . . . . . . .]
|-------------------------------------------------------------------------------------------------|
|-------------------------------------------------------------------------------------------------|
|------------------------------------------------------------13---15-13-12-13-12-10-9--------10---|
|------------------------------------------------------------13---15-13-12-13-12-10-9--------10---|
|------------------------------------------------------------11---13-11-10-11-10-8--7--------8----|
|--0-0-0-0-0-0-0-0-0-0-0-0-0-0-0-0-0-0-0-0-0-0-0-0-0-0-0-0-0--------------------------------------|

Main Chorus
Gtr 1 / 2
   PM [....]     [....]     [....]     [....]
|-------------------------------------------------------------------------------|
|-------------------------------------------------------------------------------|
|-----------------------------------------------------------3---3---3---3---3---|
|--7---7777---7---7777---5---5555---5---5555---3-5-3-2-5--5---5---3---1---0-----|
|--5---5555---5---5555---3---3333---3---3333------------------------------------|
|-------------------------------------------------------------------------------|
   PM [....]     [....]     [....]     [....]
|---------------------------------------------------------------------------------|
|-----------------------------------------------------------3---3---3---3---3-----|
|-------------------------------------------------------------5---3---1---0-------|
|--7---7777---7---7777---5---5555---5---5555---3-5-3-2-5--5-----------------------|
|--5---5555---5---5555---3---3333---3---3333--------------------------------------|
|---------------------------------------------------------------------------------|

   PM [....]     [....]     [....]     [....]
|-------------------------------------------------------------------------------|
|-------------------------------------------------------------------------------|
|-----------------------------------------------------------3---3---3---3---3---|
|--7---7777---7---7777---5---5555---5---5555---3-5-3-2-5--5---5---3---1---0-----|
|--5---5555---5---5555---3---3333---3---3333------------------------------------|
|-------------------------------------------------------------------------------|
   PM [....]     [....]     [....]     [....]
|---------------------------------------------------------------------------------|
|-----------------------------------------------------------3---3---3---3---3-----|
|-------------------------------------------------------------5---3---1---0-------|
|--7---7777---7---7777---5---5555---5---5555---3-5-3-2-5--5-----------------------|
|--5---5555---5---5555---3---3333---3---3333--------------------------------------|
|---------------------------------------------------------------------------------|


Gtr 1/2  Begins at 2:31
|-------------------------------------------------------------------------------|
|-------------------------------------------------------------------------------|
|-------------------------------------------------------------------------------|
|-------------------------------------------------------------------------------|
|---5-7-8-7--5-7-8-7----7-8-7----7-8-7----7-8-7----7-8-7----7-8-7-10-8-7-8------|
|---------------------5--------5--------6--------6--------8---------------------|X2

Gtr 1 After 2nd time, Gtr 2 repeats ^
|-----------------------------------------------------------------------------------|
|-----------------------------------------------------------------------------------|
|--7-9-10-9--7-9-10-9----9-10-9----9-10-9----9-10-9----9-10-9-----9-10-9-12-10-9-10-|
|----------------------7---------7---------8---------8---------10-------------------|
|-----------------------------------------------------------------------------------|
|-----------------------------------------------------------------------------------|X2


Gtr 1/2 3:01
|-------------------------------------------------------------------------------|
|-------------------------------------------------------------------------------|
|-------------------------------------------------------------------------------|
|-------------------------------------------------------------------------------|
|---6--5-5--5-5-5--3--5-5--5-5-5--6--5-5--5-5-5--8-9-9-9------------------------|
|---4--3-3--3-3-3--1--3-3--3-3-3--4--3-3--3-3-3--6-7-7-7------------------------|

|-------------------------------------------------------------------------------|
|-------------------------------------------------------------------------------|
|-------------------------------------------------------------------------------|
|------------------------------------------------2------------------------------|
|---6--5-5--5-5-5--3--5-5--5-5-5--6--5-5--5-5-5--2~-----------------------------|
|---4--3-3--3-3-3--1--3-3--3-3-3--4--3-3--3-3-3--0~-----------------------------|

|-------------------------------------------------------------------------------|
|-------------------------------------------------------------------------------|
|-------------------------------------------------------------------------------|
|-------------------------------------------------------------------------------|
|---6--5-5--5-5-5--3--5-5--5-5-5--6--5-5--5-5-5--8-9-9-9------------------------|
|---4--3-3--3-3-3--1--3-3--3-3-3--4--3-3--3-3-3--6-7-7-7------------------------|

|-------------------------------------------------------------------------------|
|-------------------------------------------------------------------------------|
|-------------------------------------------------------------------------------|
|-------------------------------------------------------------------------------|
|---6--5-5--5-5-5--3--5-5--5-5-5--6--5-5--5-5-5--9~-----------------------------|
|---4--3-3--3-3-3--1--3-3--3-3-3--4--3-3--3-3-3--7~-----------------------------|

Then goes back into
Gtr 1/2                                               3:16
|-----------------------------------------------------------------------|
|-----------------------------------------------------------------------|
|-----------------------------------------------------------------------|
|--2222222222222222666666666666666655555555555555554444444444444444-----|
|--2222222222222222666666666666666655555555555555554444444444444444-----|
|--0000000000000000444444444444444433333333333333332222222222222222-----|


Gtr 1
|-------------------------------------------------------------------|
|-------------------------------------------------------------------|
|-----666555------666555--------------------------------------------|
|--444------666777------666-----------------------------------------|
|-------------------------------------------------------------------|
|-------------------------------------------------------------------|

Gtr 1
|-------------------------------------------------------------------------------|
|-------------------------------------------------------------------------------|
|-------------------------------------------------------------------------------|
|--2h3p2--2h3p2--2h3p2--2h3p2--2h3p2--2h3p2--2h3p2--2h3p2-----------------------|
|-------------------------------------------------------------------------------|
|-------------------------------------------------------------------------------|


|-------------------|
|-------------------|
|-------------------|
|---10^-half-bend---|
|---8---------------|
|-------------------|


Right at 3:46 it goes into the-

A Queen of snow
Far beyond compare
Lips attuned to symmetry
Sought Her everywhere
Trappistine eyes
An Arabian nightmare...

riff.

Gtr 1/2
PM[. . . . . . . . . . . . . . . . . . . . . . . . . . . . .]              4:12
|-----------------------------------------------------------------------------------------------|
|-----------------------------------------------------------------------------------------------|
|------------------------------------------------------------13---15-13-12-13-12-10-9-------10--|
|------------------------------------------------------------13---15-13-12-13-12-10-9-------10--|
|------------------------------------------------------------11---13-11-10-11-10-8--7-------8---|
|--0-0-0-0-0-0-0-0-0-0-0-0-0-0-0-0-0-0-0-0-0-0-0-0-0-0-0-0-0------------------------------------|

Gtr 1
PM[. . . . . . . . . . . . . . . . . . . . . . . . . . . . .]
|------------------------------------------------------------------------------------------------|
|------------------------------------------------------------------------------------------------|
|------------------------------------------------------------13---15-13-12-13-12-10-9--------10--|
|------------------------------------------------------------13---15-13-12-13-12-10-9--------10--|
|------------------------------------------------------------11---13-11-10-11-10-8--7--------8---|
|--0-0-0-0-0-0-0-0-0-0-0-0-0-0-0-0-0-0-0-0-0-0-0-0-0-0-0-0-0-------------------------------------|


Gtr 1/2
PM[. . . . . . . . . . . . . . . . . . . . . . . . . . . . .]
|------------------------------------------------------------------------------------------------|
|------------------------------------------------------------------------------------------------|
|------------------------------------------------------------13---15-13-12-13-12-10-9--------10--|
|------------------------------------------------------------13---15-13-12-13-12-10-9--------10--|
|------------------------------------------------------------11---13-11-10-11-10-8--7--------8---|
|--0-0-0-0-0-0-0-0-0-0-0-0-0-0-0-0-0-0-0-0-0-0-0-0-0-0-0-0-0-------------------------------------|

Gtr 1
PM[. . . . . . . . . . . . . . . . . . . . . . . . . . . . .]
|------------------------------------------------------------------------------------------------|
|------------------------------------------------------------------------------------------------|
|------------------------------------------------------------13---15-13-12-13-12-10-9--------10--|
|------------------------------------------------------------13---15-13-12-13-12-10-9--------10--|
|------------------------------------------------------------11---13-11-10-11-10-8--7--------8---|
|--0-0-0-0-0-0-0-0-0-0-0-0-0-0-0-0-0-0-0-0-0-0-0-0-0-0-0-0-0-------------------------------------|


Main Chorus   ---    this one is a whole step down
Gtr 1 / 2
   PM [....]     [....]     [....]     [....]                          4:42
|----------------------------------------------------------------------------------|
|----------------------------------------------------------------------------------|
|----------------------------------------------------------------------------------|
|--5---5555---5---5555---1---1111---1---1111---1-3-1-0-------1---1---1---1---1-----|
|--3---3333---3---3333---3---3333---3---3333-----------3---3---3---1---0-----------|
|--------------------------------------------------------------------------4-------|

   PM [....]     [....]     [....]     [....]
|----------------------------------------------------------------------------------|
|----------------------------------------------------------------------------------|
|-----------------------------------------------------------1---1---1---1---1------|
|--5---5555---5---5555---1---1111---1---1111---1-3-1-0--------3---1---0------------|
|--3---3333---3---3333---3---3333---3---3333-----------3--3---------------4--------|
|----------------------------------------------------------------------------------|

   PM [....]     [....]     [....]     [....]
|----------------------------------------------------------------------------------|
|----------------------------------------------------------------------------------|
|----------------------------------------------------------------------------------|
|--5---5555---5---5555---1---1111---1---1111---1-3-1-0-------1---1---1---1---1-----|
|--3---3333---3---3333---3---3333---3---3333-----------3---3---3---1---0-----------|
|--------------------------------------------------------------------------4-------|

   PM [....]     [....]     [....]     [....]
|----------------------------------------------------------------------------------|
|----------------------------------------------------------------------------------|
|-----------------------------------------------------------1---1---1---1---1------|
|--5---5555---5---5555---1---1111---1---1111---1-3-1-0--------3---1---0------------|
|--3---3333---3---3333---3---3333---3---3333-----------3--3---------------4--------|
|----------------------------------------------------------------------------------|

Then goes back to the original

   PM [....]     [....]     [....]     [....]
|-------------------------------------------------------------------------------|
|-------------------------------------------------------------------------------|
|-----------------------------------------------------------3---3---3---3---3---|
|--7---7777---7---7777---5---5555---5---5555---3-5-3-2-5--5---5---3---1---0-----|
|--5---5555---5---5555---3---3333---3---3333------------------------------------|
|-------------------------------------------------------------------------------|
   PM [....]     [....]     [....]     [....]
|---------------------------------------------------------------------------------|
|-----------------------------------------------------------3---3---3---3---3-----|
|-------------------------------------------------------------5---3---1---0-------|
|--7---7777---7---7777---5---5555---5---5555---3-5-3-2-5--5-----------------------|
|--5---5555---5---5555---3---3333---3---3333--------------------------------------|
|---------------------------------------------------------------------------------|

Gtr 2
|-------------------------------------------------------------------------------|
|-------------------------------------------------------------------------------|
|-------------------------------------------------------------------------------|
|-------------------------------------------------------------------------------|
|---5-7-8-7--5-7-8-7----7-8-7----7-8-7----7-8-7----7-8-7----7-8-7-10-8-7-8------|
|---------------------5--------5--------6--------6--------8---------------------|X4

Gtr 1
|-----------------------------------------------------------------------------------|
|-----------------------------------------------------------------------------------|
|--7-9-10-9--7-9-10-9----9-10-9----9-10-9----9-10-9----9-10-9-----9-10-9-12-10-9-10-|
|----------------------7---------7---------8---------8---------10-------------------|
|-----------------------------------------------------------------------------------|
|-----------------------------------------------------------------------------------|X4

Piano Solo Comes in Right here at 5:42

|--------------------------------------5--------5--------5-------5--------6--------|
|--3-5-6-5--3-5-6-5--3-5-6-5--3-5-6-5----5-6-5----5-6-5----5-6-5---5-6-5----5-6-5--|
|----------------------------------------------------------------------------------|
|----------------------------------------------------------------------------------|
|----------------------------------------------------------------------------------|
|----------------------------------------------------------------------------------|

[----------------------------------------------------------------------------------
                             R e p e a t


6--------6--------6--------8--------3--------8---------3---------|
--5-6-5----5-6-5----5-6-5----5-6-5----5-6-5-----5-6-5----5-6-5---|
-----------------------------------------------------------------|
-----------------------------------------------------------------|
-----------------------------------------------------------------|
-----------------------------------------------------------------|

-------------------]

End-
|-------------------------------------------------------------------------------|
|-11---10----8-10-10-----5----11------------------------------------------------|
|-------------------------------------------------------------------------------|
|-----------------------------------7~~~~---------------------------------------|
|-----------------------------------5~~~~---------------------------------------|
|-------------------------------------------------------------------------------|


Keyboard ending -


|--------------------------------------------------------------------------------------|
|--------------------------------------------------------------------------------------|
|-----------7-6-2----6-5-1----5-4-0----------------7-6-2----6-5-1----5-4-0-------------|
|--0---3-5------------------------------------3-5--------------------------------------|
|--------------------------------------3-5-----------------------------------3---------|
|--------------------------------------------------------------------------------------|





Comments


Popular Cradle Of Filth tabs & chords
Hurt & Virtue Bass Tabs
A Gothic Romance 1 Tabs
An Enemy Led The Tempest Tabs
Death Comes Ripping Tabs
Filthy Little Secret Tabs
Funeral In Carpathia Tabs
Her Ghost In The Fog 2 Tabs
Nocturnal Supremacy 1 Tabs
The Nun With The Astral Habit Tabs
Unbridled At Dusk Tabs


Song lyrics



↑ Back to top | Tablatures and chords are parodies/interpretations of the original songs. You may use it for private study, scholarship, research or language learning purposes only
© 2014 AZChords.com Contact us | Privacy policy | DMCA | Add/correct tabs | Request tabs | Top 50 tabs