>
 >
Heaven Torn Asunder

Heaven Torn Asunder Guitar Tabs

Cradle Of Filth - Heaven Torn Asunder chords, tabs, tablatures, lyrics

Guitar lessons | Add/correct | Request | Top 50 tabs Artists:  A B C D E F G H I J K L M N O P Q R S T U V W X Y Z 0-9

Heaven Torn Asunder Guitar Tabs – Cradle Of Filth

CD, Sheet music, Poster

Do you like Heaven Torn Asunder? Share with your friends now
Bass TabsTabs
1997 Music For Nations






Legend:

h       =  hammer-on              b/  =   bend half a step
p       = pull-off
PM |--| = palm mute                )
"       = tremolo picking        b/   =  bend one whole step
        = (or 32th note)
/       = slide up               b/\  =  bend half a step and release
\       = slide down
4/4     = time signature           )
( )     = tie note               b/ \ =  bend one whole step and release
x       = muffled note           b    =  bend without picking
                                 B    =  bend with picking

Timing: 4/4: ----   = 1 beat
       12/8: ------ = 1 beat
       |_3_|        = triplets

Tune Down 1 whole step  (6:D 5:G 4:C 3:F 2:A 1:D)

 12/8
 Riff A
|--------------------------|-------------------------|-------------------------|
|--------------------------|-------------------------|-------------------------|
|o-------------------------|-------------------------|-------------------------|
|o-7--p---p----7--p---p----|-7--p---p----7--p---p----|-6--p---p----6--p---p----|
|----5-4-5-4-5---5-4-5-4-5-|---5-4-5-4-5---5-4-5-4-5-|---5-4-5-4-5---5-4-5-4-5-|
|--------------------------|-------------------------|-------------------------|

               (end Riff A)  4/4
|--------------------------||-----------------|-----------------|-----------------|
|--------------------------||-----------------|-----------------|-----------------|
|-------------------------o||-7---------------|-6---------------|-7---------------|
|-6--p---p----6--p---p----o||-7---------------|-6---------------|-7---------------|
|---5-4-5-4-5---5-4-5-4-5--||-5---------------|-4---------------|-5---------------|
|--------------------------||-----------------|-----------------|-----------------|

|------------------|--------------------|-------------------|--------------------|
|------------------|--------------------|-------------------|--------------------|
|-6-------10---9---|-7------------------|-9-----------------|-7------------------|
|-6-------10---9---|-7------------h--p--|-9------------h-p--|-7------------h--p--|
|-4-------8----7---|-5-------10~-8-10-8-|-7-------8~--7-8-7-|-5-------10~-8-10-8-|
|------------------|--------------------|-------------------|--------------------|

|------------------|--------------------|------------------|
|------------------|--------------------|------------------|
|-9-------10---9---|-7------------------|-9-------10---9---|
|-9-------10---9---|-7------------h--p--|-9-------10---9---|
|-7-------8----7---|-5-------10~-8-10-8-|-7-------8----7---|
|------------------|--------------------|------------------|

  (Gtr 1)
|--------------------|-----------------------|
|--------------------|-----------------------|
|-7------------------|-----------------------|
|-7------------------|-7~------5~---p--------|
|-5-------10~-8-10-8-|-----7-------7-8-5-4---|
|--------------------|-----------------------|
|                                            |
| (Gtr 2)                                    |
|--------------------|-----------------------|
|--------------------|-----------------------|
|-7------------------|-9---------------------|
|-7------------------|-9-------5~---p--------|
|-5-------10~-8-10-8-|-7-----------7-8-5-4---|
|--------------------|-----------------------|

play Riff A 2 times

 Riff A1 (Gtr 1) /w Riff A 2 times
|--------------------------|-------------------------|
|--------------------------|-------------------------|
|o-7-----------7-----------|-7-----------7-----------|
|o---5-4-5-4-5---5-4-5-4-5-|---5-4-5-4-5---5-4-5-4-5-|
|--------------------------|-------------------------|
|--------------------------|-------------------------|

|-------------------------|--------------------------|
|-------------------------|--------------------------|
|-6-----------6-----------|-6-----------6-----------o|
|---5-4-5-4-5---5-4-5-4-5-|---5-4-5-4-5---5-4-5-4-5-o|
|-------------------------|--------------------------|
|-------------------------|--------------------------|

         (Gtr 1)
|-----------------|-----------------|-----------------|--------------------|
|-----------------|-----------------|-----------------|--------------------|
|-----------------|-----------------|-----------------|--------------------|
|-----------------|-----------------|-----------------|-5------------------|
|-7---------------|-------------5---|-7---------------|---8--7-8--7-8--7~--|
|-5---------------|-------------3---|-5---------------|--------------------|
|                                                                          |
| Riff B (Gtr 2)                                              (end Riff B) |
|-----------------|-----------------|-----------------|--------------------|
|-----------------|-----------------|-----------------|-8------------------|
|-9-----9-----9---|---9-----9---7---|-9-----9-----9---|---10-9-10-9-10-9~--|
|-7-77777-77777-77|-777-77777-775---|-7-77777-77777-77|--------------------|
|-----------------|-----------------|-----------------|--------------------|
|-----------------|-----------------|-----------------|--------------------|

                                                         ________________
 (Gtr 1) w/ Riff B 2 times                              |1.              |
|------------------|-----------------|-----------------|------------------|
|------------------|-----------------|-----------------|------------------|
|o-----------------|-----------------|-----------------|-----------------o|
|o-----------------|-----------------|-----------------|-----------------o|
|--7-----7-----7---|---7-----7---5---|-7-----7-----7---|-5-3-2-3-2-3-2~---|
|--5-55555-55555-55|-555-55555-553---|-5-55555-55555-55|------------------|

                   Riff C
|-----------------|-------------------|-------------------|------------------|
|-----------------|-------------------|-------------------|------------------|
|-----------------|o------------------|-------------------|------------------|
|-7-7-5-7-5-7-5~--|o-----7-----10-----|-9-10-9-7-9-10-9-7-|-----7-----10-----|
|-----------------|--0000--0000---0000|-------------------|-0000--0000---0000|
|-----------------|-------------------|-------------------|------------------|

          (end Riff C)  Riff C1 (Gtr 2) /w Riff C 2 times
|---------------------||-------------------|-------------------|------------------|
|---------------------||-------------------|-------------------|------------------|
|-7------------------o||o------------------|-------------------|------------------|
|---10-9-10-9-10-9~--o||o-----7-----10-----|-9-10-9-7-9-10-9-7-|-----7-----10-----|
|---------------------||--0000--0000---0000|-------------------|-0000--0000---0000|
|---------------------||-------------------|-------------------|------------------|

         (end Riff C1)  (Bass)
|---------------------||-------------------------|-------------------------|
|-8-------------------||-------------------------|-------------------------|
|---10-9-10-9-10-9~--o||-------------------------|-------------------------|
|--------------------o||-------------------------|-------------------Gtr-1-|
|---------------------||-------------------------|-------------------x\\\\\|
|---------------------||-------------------------|-------------------x\\\\\|

 (Both Gtrs)
|-------------------------|-------------------------|
|-------------------------|-------------------------|
|-------------------------|-------------------------|
|-------------------------|-------------------------|
|-444444444422444444444422|-444455444422445544224455|
|-------------------------|-------------------------|

  Riff D (Gtr 1)
|-------------------------|---------------------------|-------------------------|
|-------------------------|---------------------------|-------------------------|
|-------------------------|---------------------------|-------------------------|
|-------------------------|---------------------------|-------------------------|
|-777777777755777777777755|-777788-7777557788-77557755|-444444444422444444444422|
|-------------------------|---------------------------|-------------------------|
|                                                                               |
| Riff D1 (Gtr 2)                                                               |
|-------------------------|---------------------------|-------------------------|
|-------------------------|---------------------------|-------------------------|
|-------------------------|---------------------------|-------------------------|
|-999999999977999999999977|-999910"9999779910"99779977|-666666666644666666666644|
|-------------------------|---------------------------|-------------------------|
|-------------------------|---------------------------|-------------------------|

             (end Riff D)   Riff E
|-------------------------||-------------------------|----------------------------|
|-------------------------||-------------------------|----------------------------|
|-------------------------||-------------------------|----------------------------|
|-------------------------||-------------------------|----------------------------|
|-444455444422445544224455||-777777777755777777777755|-777788-7777557788-77557788-|
|-------------------------||-------------------------|----------------------------|
|                                                                                 |
|            (end Riff D1)  Riff E1                                               |
|-------------------------||-------------------------|----------------------------|
|-------------------------||-------------------------|----------------------------|
|-------------------------||-------------------------|----------------------------|
|-666677666644667766446677||-999999999977999999999977|-999910"9999779910"99779910"|
|-------------------------||-------------------------|----------------------------|
|-------------------------||-------------------------|----------------------------|

                                           (end Riff E)
|---------------------------|--------------------------|--------------------------|
|---------------------------|--------------------------|-------play-Riff-F--------|
|---------------------------|--------------------------|o--------2-times---------o|
|--------------------55-----|-55555555555577-55--55----|o------------------------o|
|-888888888888557788---88-77|------------------88--8855|--------------------------|
|---------------------------|--------------------------|--------------------------|
|                                                                                 |
|                                         (end Riff E1)                           |
|---------------------------|--------------------------|--------------------------|
|---------------------------|--------------------------|-------play-Riff-F1-------|
|--------------------77-----|--------------------------|o--------2-times---------o|
|-10"10"10"10"779910"--10"99|-99999999999910"9977997755|o------------------------o|
|---------------------------|--------------------------|--------------------------|
|---------------------------|--------------------------|--------------------------|

 4/4
|-----------------|-----------------|-----------------|-----------------|
|-----------------|-----------------|-----------------|-----------------|
|-9\--------------|-(Bass)----------|-------------9---|-14----12----11--|
|-9\--------------|-----------------|-------------9---|-14----12----11--|
|-7\--------------|-----------------|-------------7---|-12----10----9---|
|-----------------|-----------------|-----------------|-----------------|

|-----------------|-----------------|-----------------|-----------------|
|-----------------|-----------------|-----------------|-----------------|
|-9---------------|-7---------------|-5---------------|-(5)-------------|
|-9---------------|-7---------------|-5---------------|-(5)-------------|
|-7---------------|-5---------------|-3---------------|-(3)-------------|
|-----------------|-----------------|-----------------|-----------------|

 Riff F
|--------------------|--------------------|-----------------------------|
|--------------------|--------------------|-----------------------------|
|--------------------|--------------------|-----------------------------|
|---p------p------p--|---p------p------p--|---p----------p----------p---|
|-10-777710-777710-7-|-12-999912-999912-9-|-14-1010101014-1010101014-10-|
|--------------------|--------------------|-----------------------------|

|-----------------------|--------------------|-----------------|-----------------|
|-----------------------|--------------------|-----------------|-----------------|
|-----------------------|--------------------|-----------------|-----------------|
|-1010101010109999997777|---p------p------p--|--p-----p-----p--|--p-----p-----p--|
|-----------------------|-10-777710-777710-7-|-9-55559-55559-5-|-7-33337-33337-3-|
|-----------------------|--------------------|-----------------|-----------------|

      (end Riff F)  (Gtr 2) /w Riff F
|-----------------||-----------------|--------------------|--------------------|
|-----------------||-----------------|--------------------|--------------------|
|-----------------||--p-----p-----p--|---p------p------p--|---p------p------p--|
|--p-----p-----p--||-9-55559-55559-5-|-10-777710-777710-7-|-12-999912-999912-9-|
|-9-55559-55559-5-||-----------------|--------------------|--------------------|
|-----------------||-----------------|--------------------|--------------------|

|---------------------------|-----------------------------|--------------------|
|---------------------------|-----------------------------|--------------------|
|-999999--------------------|-----------------------------|--------------------|
|-------12121212121210101010|---p----------p----------p---|---p------p------p--|
|---------------------------|-14-1010101014-1010101014-10-|-12-999912-999912-9-|
|---------------------------|-----------------------------|--------------------|

|--------------------|--------------------|
|--------------------|--------------------|
|--------------------|--------------------|
|---p------p------p--|---p------p------p--|
|-10-777710-777710-7-|-12-999912-999912-9-|
|--------------------|--------------------|

play Riff C 2 times
play Riff C & C1 2 times

  (Gtr 1)
|-----------------|-----------------|-----------------|-----------------|
|-----------------|-----------------|-----------------|-----------------|
|-----------------|-----------------|-----------------|-----------------|
|-----------------|-----------------|-----------------|-----------------|
|-----------------|---------1~--1~--|-----------------|---------2~--2~--|
|-0-0---0-1~----0-|---0---0---------|-2-2---2-3~----1-|---1---1---------|
|                                                                       |
| (Gtr 2)                                                               |
|-----------------|-----------------|-----------------|-----------------|
|-----------------|-----------------|-----------------|-----------------|
|-----------------|-----------------|-----------------|-----------------|
|-----------------|---------8~--8~--|-----------------|---------9~--9~--|
|-7-7---7-8~----7-|---7---7---------|-9-9---9-10~---8-|---8---8---------|
|-----------------|-----------------|-----------------|-----------------|

 (Gtr 2) /w Riff D
|-------------------------|-------------------------|
|-------------------------|-------------------------|
|-------------------------|-------------------------|
|-------------------------|-------------------------|
|-777777777755777777777755|-777788777755778877557755|
|-------------------------|-------------------------|

|-------------------------|-------------------------|
|-------------------------|-------------------------|
|-------------------------|-------------------------|
|-666666666644666666666644|-666677666644667766446677|
|-------------------------|-------------------------|
|-------------------------|-------------------------|

play Riff D & D1
play Riff E & E1
play Riff D 2 times

|-------------------------||------------------|------------------|
|-------------------------||------------------|------------------|
|-7----Synthesizer--------||o-7---------------|-6---------------o|
|-7-----------------------||o-7---------------|-6---------------o|
|-5-----------------------||--5---------------|-4----------------|
|-------------------------||------------------|------------------|

|---------------------------|------------------|-------------------|
|---------------------------|------------------|-------------------|
|o-10-------10-12--14-12-10-|-9---------------o|-10-----9-7-----5\4|
|o-10-------10-12--14-12-10-|-9---------------o|-10-----9-7-----5\4|
|--8--------8--10--12-10-8--|-7----------------|-8------7-5-----3\2|
|---------------------------|------------------|-------------------|

|-----------------||----------------------|--------------------|
|-----------------||----------------------|--------------------|
|-2-------10--9---||-7-------12--10/12-10-|-9-------10--9/10-9-|
|-2-------10--9---||-7-------12--10/12-10-|-9-------10--9/10-9-|
|-0-------8---7---||-5-------10--8-/10-8--|-7-------8---7/8--7-|
|-----------------||----------------------|--------------------|

|----------------------|-----------------|
|----------------------|-----------------|
|-7-------12--10/12-10-|-9-------10--9---|
|-7-------12--10/12-10-|-9-------10--9---|
|-5-------10--8-/10-8--|-7-------8---7---|
|----------------------|-----------------|

  (Gtr 1)
|----------------------|--------------------|
|----------------------|--------------------|
|-7--------------------|--------------------|
|-7-------------h--p---|--------------h--p--|
|-5-------10~-8--10-8--|-7~------8~--7-8--7-|
|----------------------|--------------------|
|                                           |
| (Gtr 2)                                   |
|----------------------|--------------------|
|----------------------|--------------------|
|-7-------12--10/12-10-|-9-------10--9/10-9-|
|-7-------12--10/12-10-|-9-------10--9/10-9-|
|-5-------10--8-/10-8--|-7-------8---7/8--7-|
|----------------------|--------------------|

|----------------------|-----------------------|
|----------------------|-----------------------|
|----------------------|-----------------------|
|----------------------|-7~------5----p--------|
|-5~------10~-8--10-8--|-----7-------7-8-5-4---|
|----------------------|-----------------------|
|                                              |
|                                              |
|----------------------|-----------------------|
|----------------------|-----------------------|
|-7-------12--10/12-10-|-9---------------------|
|-7-------12--10/12-10-|-9-------5~---p--------|
|-5-------10--8-/10-8--|-7-----------7-8-5-4---|
|----------------------|-----------------------|

play Riff A 2 times
play Riff A & A1 2 times
play Riff E & E1 2 times

end with:
|-------------------------|
|-------------------------|
|-------------------------|
|-------------------------|
|-7~----------------------|
|-------------------------|
|                         |
|                         |
|-------------------------|
|-------------------------|
|-------------------------|
|-9~----------------------|
|-------------------------|
|-------------------------|





Comments


Popular Cradle Of Filth tabs & chords
Thank God For The Suffering 1 Bass Tabs
Beneath The Depths Of Evil Tabs
Devil To The Metal Intro 1 Tabs
Dusk And Her Embrace Tabs
Haunted Shores Tabs
Queen Of Winter, Throned Tabs
Saffrons Curse (Intro) Tabs
The Principle Of Evil Made Flesh 1 Tabs
Tortured Soul Asylum Tabs
Under Huntress Moon Tabs


Song lyrics



↑ Back to top | Tablatures and chords are parodies/interpretations of the original songs. You may use it for private study, scholarship, research or language learning purposes only
© 2014 AZChords.com Contact us | Privacy policy | DMCA | Add/correct tabs | Request tabs | Top 50 tabs