» » »

From The Cradle To Enslave Tabs (ver.3)

Artists:  A B C D E F G H I J K L M N O P Q R S T U V W X Y Z # 

From The Cradle To Enslave Tabs (ver.3)

Cradle Of Filth
Rating:
0/5 (0 votes)

Hard to play? Try these video lessons and learn fast.
                "From The Cradle To Enslave" as performed by Cradle of Filth on their 1999
EP "From The Cradle To Enslave"


Main riff (Fig.1)                                 2x
                       | 1____________________| 2___________|
d|----------------8-7~-|-8-7----8-7----8-7----|-7b(8)---7---|
A|--5~--5---5-8-5------|-----8------8------8--|-------------|
F|o-------8------------|---------------------o|------------o|
C|o--------------------|---------------------o|------------o|
G|---------------------|----------------------|-------------|
D|---------------------|----------------------|-------------|



Fig.2                              2x
d|-----------------------------------|
A|-----------------------------------|
F|o-------------_3_-------------_3_-o|
C|o-2---5-------543-2---6-------654-o|
G|--2---5-------543-2---6-------654--|
D|--0---3-------321-0---4-------432--|
    S           ... S           ...
    1e2e3e4e1e2e3e4e1e2e3e4e1e2e3e4e


  (not sure about this part)              2x
d|------------------------------------------|
A|------------------------------------------|
F|o-89---910-------------89---1211---------o|
C|o-89---910-------------89---1211---------o|
G|--67---7-8-----10tr9---67---10-9-----10~--|
D|------------------------------------------|
    1e   e4 e1e2e3  e 4 e1e2e3e 4 e1e2e3e4e


Fig.2 / 2x w/vocals:



Fig.1 / 2x

Gtrs. out, vocals:


Pick slide into:
(2:38) I will only type the pc's, not full tablature for this riff:
|:
D5 D5 D5 D5 A#5 A#5 A#5 A#5 A#5 A#5 A#5 A#5 A#5 A#5 A#5 A#5
D5 D5 D5 D5 A#5 A#5 A#5 A#5 C#5 C#5 C#5 C#5 C#5 C#5 C#5 C#5 
D5 D5 D5 D5 A#5 A#5 A#5 A#5 A#5 A#5 A#5 A#5 A#5 A#5 A#5 A#5
D5 D5 D5 D5 C#5 C#5 C#5 C#5 E5 E5 E5 E5 E5 E5 E5 E5 
:| 3x
w/vocals entering 2nd time:


Same riff but play with rests:
D5  A#5
D5  A#5  C#5
D5  A#5
D5  A#5  E5
w/vocals:


(3:44)
d|---------------------------------------13b(14)-11-13b(14)-13---|
A|---11~--11b(12)r(11)---11-10~-----11~--------------------------|
F|-8-------------------8----------8------------------------------|
C|---------------------------------------------------------------|
G|---------------------------------------------------------------|
D|---------------------------------------------------------------|
w/vocals:
            
Hard to play? Try these video lessons and learn fast. | Correct




comments powered by Disqus
↑ Back to top | Tablatures and chords are parodies/interpretations of the original songs. You may use it for private study, scholarship, research or language learning purposes only