» » »

Cradle Of Filth, From The Cradle To Enslave Tabs (ver.2)

Artists:  A B C D E F G H I J K L M N O P Q R S T U V W X Y Z # 

From The Cradle To Enslave Tabs (ver.2)

Cradle Of Filth Tabs
 Rating:
4/5 (4 votes)
From The Cradle To Enslave lessons Tabs too difficult? Try these video lessons and learn fast
                Tuning: Drop D
 D A D G B E (LOW TO HIGH)
 6 5 4 3 2 1 

X///// - pick scratch
H      - hammer on
P      - pull off
^       - bend
~       - let ring
p.m. *- palm mute
/        - slide

PLEASE RATE

Intro: The intro is done with only keyboards and bass

Then guitar enters
Riff 1:       
E--------------------------------------------------------------------------------------------------------
B--------------------------------------------3--5h7p5----987-987-987-3------------3-5h7p5---10^h8--10v--
G--------------------------------------------------------------------------------------------------------
D--------------------------------------------------------------------------------------------------------
A--------------------------------------------------------------------------------------------------------
D---X////////----000000000000000-------------------------------------------------------------------------
 p.m.            ***************       Repeat this riff twice

Then
Riff 2:
E----------------------------------------
B----------------------------------------
G----------------------------------------
D--0--0-3~-3-2-1-0~05~-5-3-1-------------
A--0--0-3~-3-2-1-0~05~-5-3-1-------------
D--0--0-3~-3-2-1-0~05~-5-3-1-------------
p.m.  *    * * *   *   * * *

Riff 3:
E------------------------------------------------------------------------------
D------------------------------------------------------------------------------
G--------------5/3-------------------------------------------------5/3---------
D--0h3---------5/3----------------------------------0h3------------5/3---------
A--0h3---------3/1----------------------------------0h3------------3/1---------
D--0h3-0000------000000000--7p5h7p5h7p5---0h3-0000-----000000000----------9v---
p.m.   ****      *********                    *****    *********

Then
Riff 2:
E----------------------------------------
B----------------------------------------
G----------------------------------------
D--0--0-3~-3-2-1-0~05~-5-3-1-------------
A--0--0-3~-3-2-1-0~05~-5-3-1-------------
D--0--0-3~-3-2-1-0~05~-5-3-1-------------
p.m.  *    * * *   *   * * * 

Riff 1: without pick scratch
E-------------------------------------------------------------------------------------------------------
B--------------------------------------------3--5h7p5----987-987-987-3------------3-5h7p5---10^h8--10v--
G-------------------------------------------------------------------------------------------------------
D-------------------------------------------------------------------------------------------------------
A-------------------------------------------------------------------------------------------------------
D-----0000000000000000000000----------------------------------------------------------------------------
p.m.  **********************
Keyboards and vocals
Then Riff4:
E-----------------------------------------------------------------------------------
B-----------------------------------------------------------------------------------
G-----------------------------------------------------------------------------------
D-----------------------------------------------------------------------------------
A-----------------------------------------------------------------------------------
D--X//////////--00000000000000000000000000000000000000000---------------------------
p.m.            *****************************************

Riff 1: without pick scratch
E-------------------------------------------------------------------------------------------------------
B--------------------------------------------3--5h7p5----987-987-987-3------------3-5h7p5---10^h8--10v--
G-------------------------------------------------------------------------------------------------------
D-------------------------------------------------------------------------------------------------------
A-------------------------------------------------------------------------------------------------------
D-----0000000000000000000000----------------------------------------------------------------------------
p.m.  **********************

Keyboards and vocals
Then Riff 4:
E-----------------------------------------------------------------------------------
B-----------------------------------------------------------------------------------
G-----------------------------------------------------------------------------------
D-----------------------------------------------------------------------------------
A-----------------------------------------------------------------------------------
D--X//////////--00000000000000000000000000000000000000000---------------------------
p.m.            *****************************************
You can hear this somewhere in between
E-----------------------------------------------------------------------------------
B---9^--7-5-9--12^------------------------------------------------------------------
G-----------------------------------------------------------------------------------
D-----------------------------------------------------------------------------------
A-----------------------------------------------------------------------------------
D-----------------------------------------------------------------------------------

Riff 1: without pick scratch
E-------------------------------------------------------------------------------------------------------
B--------------------------------------------3--5h7p5----987-987-987-3------------3-5h7p5---10^h8--10v--
G-------------------------------------------------------------------------------------------------------
D-------------------------------------------------------------------------------------------------------
A-------------------------------------------------------------------------------------------------------
D-----0000000000000000000000----------------------------------------------------------------------------
p.m.  **********************

That?s about it. Please rate my tab its my first.
            
Submit corrections

comments powered by Disqus
↑ Back to top | Cradle Of Filth Tabs for From The Cradle To Enslave. Lyrics for acoustic guitar and electric guitar. Tablatures and chords are parodies/interpretations of the original songs. You may use it for private study, scholarship, research or language learning purposes only