» » »

Cradle Of Filth, Fear Of The Dark Tabs (ver.1)

Artists:  A B C D E F G H I J K L M N O P Q R S T U V W X Y Z # 

Fear Of The Dark Tabs (ver.1)

Cradle Of Filth Tabs
 Rating:
4/5 (4 votes)
Fear Of The Dark lessons Tabs too difficult? Try these video lessons and learn fast
                Intro
E|---------------------------------|----------------------------------------|
B|---------------------------------|---------------5-5---------5------------|
G|-7-----7-7-9-9-10-10-9-9-7-7-9-9-|-5-----5-5-7-7-----7-7-5-5---5----------|
D|---7-7---------------------------|---5-5----------------------------------|
A|---------------------------------|----------------------------------------|
E|---------------------------------|----------------------------------------|
(twice)

E|-----------------------------------|--------------------------------------|
B|-----------------------------------|--------------------------------------|
G|-----------------------------------|-----------------4-4---------4--------|
D|-7-7-----7-7-9-9-10-10-9-9-7-7-9-9-|-5-5-----5-5-7-7-----7-7-5-5---5------|
A|-----7-7---------------------------|-----5-5------------------------------|
E|-----------------------------------|--------------------------------------|

E|-----------------------------------|--------------------------------------|
B|-----------------------------------|--------------------------------------|
G|-----------------------------------|-----------------2-2---------2--------|
D|-7-7-----7-7-9-9-10-10-9-9-7-7-9-9-|-3-3-----3-3-5-5-----5-5-3-3---3------|
A|-----7-7---------------------------|-----3-3------------------------------|
E|-----------------------------------|--------------------------------------|

Next
E|---------------------------------|----------------------------------------|
B|---------------------------------|----------------------------------------|
G|---------------------------------|----------------------------------------|
D|-----7-7-5-5-7-7-----7-7-5-5-7-7-|-----------------5-5--------------------|
A|-5-5-------------5-5-------------|-----5-5-7-7-8-8-----8-8-7--------------|
E|---------------------------------|-5-5------------------------------------|

Solo thing
E|---------------------------------------------|
B|---------------------------------------------|
G|-7--7-7-9-10-9~-10-9-7--7--------------------|
D|--------------------------10-8--8-7-5-7^-7~--|
A|---------------------------------------------|
E|---------------------------------------------|

E|---------------------------------------------|
B|---------------------------------------------|
G|-7--7-7-9-10-9~-10-9-7--7----------5-7~------|
D|--------------------------10-8-7-5-----------|
A|---------------------------------------------|
E|---------------------------------------------|

E|--------------------------------------------------------------------------|
B|---------------8---------------8------------------------------------------|
G|---7~---7-9-10---10-9---7-9-10---10-9--7----------------------------------|
D|-7----7---------------7------------------10-7-7^-7~-----------------------|
A|--------------------------------------------------------------------------|
E|--------------------------------------------------------------------------|

E|--------------------------------------------------------------------------|
B|---------------8---------------8--------------10^-10~---------------------|
G|---7~---7-9-10---10-9---7-9-10---10-9--7----------------------------------|
D|-7----7---------------7------------------10-7-----------------------------|
A|--------------------------------------------------------------------------|
E|--------------------------------------------------------------------------|


E|--------------------------------------------------------------------------|
B|-------10-6-8~-------10-6-8-6---------------------------------------------|
G|-7-7-7---------7-7-7----------------10-7-9~-------10-7-9-5--------7-3-5---|
D|------------------------------8-8-8---------8-8-8-----------5-5-5---------|
A|--------------------------------------------------------------------------|
E|--------------------------------------------------------------------------|

E|--------------------------------------------------------------------------|
B|--------------------------------------------------------------------------|
G|-------10-7-9-------7----7-5---5-7---7-5---5------------------------------|
D|-7-7-7--------10-7--7--7-----7-----7-----7--------------------------------|
A|--------------------------------------------------------------------------|
E|--------------------------------------------------------------------------|
            
Submit corrections

comments powered by Disqus
↑ Back to top | Cradle Of Filth Tabs for Fear Of The Dark. Lyrics for acoustic guitar and electric guitar. Tablatures and chords are parodies/interpretations of the original songs. You may use it for private study, scholarship, research or language learning purposes only