» » »

Ebony Dressed For Sunset Tabs (ver.1)

Artists:  A B C D E F G H I J K L M N O P Q R S T U V W X Y Z # 

Ebony Dressed For Sunset Tabs (ver.1)

Cradle Of Filth
Rating:
0/5 (0 votes)

Hard to play? Try these video lessons and learn fast.
                
	This is one of the fastest song of COF, one of the easiest too. 
I think it's one of the best too !! I tabbed Gian and Paul.

	    Paul: BC Rich
	    
They use both the pre-amp "5150 Peavey" for the dist.
Personnaly, I use the "Boss Hyper Metal 3" distortion pedal,
but the Boss MT-2 is better !!!


LET'S ROCK !!!:
		

Meanings :	\  : slide up
		~  : vibrato
		h  : Hammer on
		p  : pull off
		^  : bend down or up (as your preference)
		x\ : pick slide, begin the slide at the bottom of the string, finish at the top !
		     ( use your rythm hand )
		T  : tapping
		
INTRO
  
	Gian Pyres / Powerchords  (Tremolo Picking)                         
D|------|----------|---------|---------|---------|-------------------|
A|------|----------|---------|---------|---------|-------------------|
F|------|----------|---------|---------|---------|-------------------|
C|------|-999999999|888888888|777777777|999999999|101010101010101010-|
G|-\7~--|-777777777|666666666|555555555|777777777|8-8-8-8-8-8-8-8-8--|
D|------|----------|---------|---------|---------|-------------------|
 
	Paul Allender / (Tremolo Picking)
D|------|----------|---------|---------|---------|-------------------|
A|------|----------|---------|---------|---------|-------------------|
F|------|----------|---------|---------|---------|-------------------|
C|------|----------|---------|---------|---------|-------------------|
G|-\7~--|-777777777|666666666|555555555|777777777|888888888888888888-|
D|------|----------|---------|---------|---------|-------------------|
  	
 	[------------------------------------- x4 both --------------]
 
 
SYMPHONIC RIFF

RIFF 1

	Both x2 Constant fast picking
D|---------------------------------------------------------------------------|
A|---------------------------------------------------------------------------|
F|---------------------------------------------------------------------------|
C|---------------------------------------------------------------------------|
G|-5-8-7-8--5-8-7-8--4-8-7-8--4-8-7-8----8-7-8----8-7-8--5-8-7-8--6-9-8-9----|
D|-------------------------------------8--------8----------------------------| 
    
    
Then... RIFF 2  

At this moment they play their own riff together

	Gian Pyres / (Constant fast picking)
D|---------------------------------------------------------------------------------------------------|
A|---------------------------------------------------------------------------------------------------|
F|---------------------------------------------------------------------------------------------------|
C|---------------------------------------------------------------------------------------------------|
G|-9-12-11-12--9-12-11-12--8-12-11-12--8-12-11-12-----12-11-12-----12-11-12--9-12-11-12--10-13-12-13-|
D|-------------------------------------------------12-----------12-----------------------------------|
    						    *            *
D|---------------------------------------------------------------------------------------------------|
A|---------------------------------------------------------------------------------------------------|
F|---------------------------------------------------------------------------------------------------|
C|---------------------------------------------------------------------------------------------------|
G|-9-12-11-12--9-12-11-12--9-12-11-12-14-12-11-12--9-12-11-12--9-12-11-12--8-11-10-11--11-14-13-14---|
D|---------------------------------------------------------------------------------------------------|
	Here Gian plays an octave lower, on C-String. But this riff is easier !! Because the frets are
smaller.	* You can substitute this note by the 7th fret on G-String !

	Paul Allender / (Constant fast picking)
D|---------------------------------------------------------------------------|
A|---------------------------------------------------------------------------|
F|---------------------------------------------------------------------------|
C|---------------------------------------------------------------------------|
G|-5-8-7-8--5-8-7-8--4-8-7-8--4-8-7-8----8-7-8----8-7-8--5-8-7-8--6-9-8-9----|
D|-------------------------------------8--------8----------------------------| 

D|---------------------------------------------------------------------------|
A|---------------------------------------------------------------------------|
F|---------------------------------------------------------------------------|
C|---------------------------------------------------------------------------|
G|-5-8-7-8--5-8-7-8--5-8-7-8-10-8-7-8--5-8-7-8--5-8-7-8--4-7-6-7--7-10-9-10--|
D|---------------------------------------------------------------------------|


INTERLUDE

	Gian Pyres / (Tremolo picking)  
D|-----------------------------------------------|-----------------|-----------------|------------------|
A|-----------------------------------------------|-----------------|-----------------|------------------|
F|-----------------------------------------------|-----------------|-----------------|------------------|
C|-----------------------------------------------|-----------------|-----------------|------------------|
G|-12-12-12-12h14^-12h14^-12-12-12-12-12-12-12-12|11-11-11-11-11-11|12-12-12-12-12-12|13-13-13-13-13-13-|
D|-----------------------------------------------|-----------------|-----------------|------------------|
    
    
	Paul Allender / (Tremolo picking)
D|-----------------------------------------------|-----------------|-----------------|------------------|
A|-----------------------------------------------|-----------------|-----------------|------------------|
F|-----------------------------------------------|-----------------|-----------------|------------------|
C|-----------------------------------------------|-----------------|-----------------|------------------|
G|-7777777777777777777776666666666666666666666666|55555555555555555|77777777777777777|88888888888888888-|
D|-----------------------------------------------|-----------------|-----------------|------------------|
	In fact, Paul repeats the intro.
	

RIFF 3

	Gian Pyres / SWEEPING RIFF * !!!!!!!!!!!!!!  x4
D|----------------------------------------------------------------------|
A|-8p7-8p7-8p7-8p7-8--7p5-7p5-8p7-7p5-7-7p5-7p5-8p7-7p5-7--8-8-10-12-13-|
F|----------------------------------------------------------------------|
C|----------------------------------------------------------------------|
G|----------------------------------------------------------------------|
D|----------------------------------------------------------------------| 
    T   T   T   T  T   T   T   T   T  T  T   T   T   T  T  T T  T  T  T
  
*   You must use your two Hands !! Abandon your Rythm Hand ! Push with your fingers on this frets,
and make the pull off effect. You can add vibrato on this notes.

After the sweeping riff; PICK SLIDE on C-String !! Your guitar must cry !!:

D|------------------------------------------------------|
A|------------------------------------------------------|
F|------------------------------------------------------|
C|-x\\\\\-----------------------------------------------|
G|------------------------------------------------------|
D|------------------------------------------------------|

During Gian's sweeping riff :

	Paul Allender / (Tremolo picking)
D|------------------------------------------------------|
A|------------------------------------------------------|
F|------------------------------------------------------|
C|----------- HE REPEATS THE INTRO   x 4 ---------------|
G|------------------------------------------------------|
D|------------------------------------------------------|


Then... RIFF 4:

In fact, they repeat RIFF 2

	Gian Pyres / (Constant fast picking)
D|---------------------------------------------------------------------------------------------------|
A|---------------------------------------------------------------------------------------------------|
F|---------------------------------------------------------------------------------------------------|
C|---------------------------------------------------------------------------------------------------|
G|-9-12-11-12--9-12-11-12--8-12-11-12--8-12-11-12-----12-11-12-----12-11-12--9-12-11-12--10-13-12-13-|
D|-------------------------------------------------12-----------12-----------------------------------|
    
D|---------------------------------------------------------------------------------------------------|
A|---------------------------------------------------------------------------------------------------|
F|---------------------------------------------------------------------------------------------------|
C|---------------------------------------------------------------------------------------------------|
G|-9-12-11-12--9-12-11-12--9-12-11-12-14-12-11-12--9-12-11-12--9-12-11-12--8-11-10-11--11-14-13-14---|
D|---------------------------------------------------------------------------------------------------| 

	Paul Allender / (Constant fast picking)
D|---------------------------------------------------------------------------|
A|---------------------------------------------------------------------------|
F|---------------------------------------------------------------------------|
C|---------------------------------------------------------------------------|
G|-5-8-7-8--5-8-7-8--4-8-7-8--4-8-7-8----8-7-8----8-7-8--5-8-7-8--6-9-8-9----|
D|-------------------------------------8--------8----------------------------| 

D|---------------------------------------------------------------------------|
A|---------------------------------------------------------------------------|
F|---------------------------------------------------------------------------|
C|---------------------------------------------------------------------------|
G|-5-8-7-8--5-8-7-8--5-8-7-8-10-8-7-8--5-8-7-8--5-8-7-8--4-7-6-7--7-10-9-10--|
D|---------------------------------------------------------------------------|


RIFF 5:

	Both / Powerchords (Tremolo picking)
D|-------------------------------------------------------------------------|
A|-------------------------------------------------------------------------|
F|-------------------------------9-9-9-9-9-9-10-10-10-10-10-10-9-9-9-9-9-9-|
C|-9-9-9-9-9-9-10-10-10-10-10-10-7-7-7-7-7-7-8--8--8--8--8--8--7-7-7-7-7-7-|
G|-7-7-7-7-7-7-8--8--8--8--8--8--------------------------------------------|
D|-------------------------------------------------------------------------|
   
    
OUTRO :  ( Not sure about this part )  

Let ring each powerchords.

	Gian Pyres
D|--------------|------------------|-----------------------------------------------|
A|--------------|------------------|-----------------------------------------------|
F|-2------------|------------------|-----------------------------------------------|
C|-2------------|----------6h7p6h7p|6h7p6h7p6h7p6h7p6h7p6--------------------2-----|
G|-0--12\11-10~-|-----8-6----------|----------------------x\-----------------2-----|
D|--------------|------------------|-----------------------------------------0-----|    
			   Use the dist. for this part
			   
	Paul Allender
D|--------------|------------------|-----------------------------------------------|
A|--------------|------------------|-----------------------------------------------|
F|-2------------|------------------|-----------------------------------------------|
C|-2------------|6-----------------|5-x\\\\\\\\\\\\\\\\\\--------------------2-----|
G|-0------------|6-----------------|5-x\\\\\\\\\\\\\\\\\\-------5--6--8--6---2-----|
D|--------------|4-----------------|3-x\\\\\\\\\\\\\\\\\\--------------------0-----|    
    
    
    Yeah!! finish, sorry for my english !! it isn't always correct ! But the tab sounds good,
very exact !!! I doubt for the outro, mail me if u find any mistakes !!!!
For more precision, you can watch the DVD " Heavy left-handed & Candid ", the DVD of this concert.

And mail me , if you have the tab of " Amor E morte " the solo, " Tortured Soul Asylum ", or
the strange interlude, in " Funeral in Carpathia " !!  PLEASE !!!!
            
Hard to play? Try these video lessons and learn fast. | Correct




comments powered by Disqus
↑ Back to top | Tablatures and chords are parodies/interpretations of the original songs. You may use it for private study, scholarship, research or language learning purposes only