» » »

Cradle Of Filth, Death Magick For Adepts Tabs (ver.1)

Artists:  A B C D E F G H I J K L M N O P Q R S T U V W X Y Z # 

Death Magick For Adepts Tabs (ver.1)

Cradle Of Filth Tabs
 Rating:
4/5 (4 votes)
Death Magick For Adepts lessons Tabs too difficult? Try these video lessons and learn fast
1
                Cradle of Filth
Death magick for adepts

..  - palm mute
 ~  - vibrato
 h  - hammer on
 p  - pull off
 \  - pick slide



Intro
                                                               x4
|----0---0------3---3----4---4----------------------------------|
|----0---0------3---3----4---4----------------------------------|
|----0---0------4---4----5---5----------------------------------|
|--2---2------5---5----6---6--------3-4-3-----------------------|
|--2---2------5---5----6---6------------------------------------|
|--0---0----2-3---3----4---4---------------3-4-3----------------|

Bass...Come distortured artists!


Riff 1
                        1st                  2nd                x2
|----------------------|-------------------|---------------------|
|----------------------|-------------------|---------------------|
|----------------------|-------------------|---------------------|
|--9-9-8-9-10--9-8-9---|-------------------|---------------------|
|--7-7-6-7--8--7-6-7---|--7---10--5---9----|--7----10---9--------|
|----------------------|--5----8--3---7----|--5-----8---7--------|


Verse

|-------------------------------------------------------------------|
|-------------------------------------------------------------------|
|-------------------------------------------------------------------|
|---6----5---2---\---6----5----2------------------------------------|
|---6----5---2---\---6----5----2------------------------------------|
|---4----3---0---\---4----3----0------------------------------------|


Then play Riff 1 again followed by the verse...



Riff 2

"Tresspass these seven gates..."
This is first played by keyboard, then accompanied by the guitars...

chords are tremolo picked                                   x2
|--------------------|------------------------------------------|
|--------------------|------------------------------------------|
|--------------------|------------------------------------------|
|--------------------|--7-7-7--3-3-3--8-8-8--3--5---------------|   gtr. 1
|--------------------|--7-7-7--3-3-3--8-8-8--3--5---------------|
|--------------------|--5-5-5--1-1-1--6-6-6--1--3---------------|
|                                                            x2 |
|--------------------|------------------------------------------|
|--------------------|------------------------------------------|
|----10-9-7-9-7------|-----------9~-----------------------------|
|---------------10-9-|---7-9-10--------10-9-10-9h10p9-7-10------|   gtr. 2
|--------------------|------------------------------------------|
|--------------------|------------------------------------------|

gtr. 2 continue...
|---------------------------------------------------------|
|---------------------------------------------------------|
|-----------10~----------------------------9-10-12-10...--| return to the begining
|--9-10-12--------12-10-12-10h12p10-9-12------------------|    of the riff...
|---------------------------------------------------------|
|---------------------------------------------------------|



Riff 3

all tremolo                x2
|-----------------------------|----------------------------------------------------------|
|-----------------------------|----------------------------------------------------------|
|-----------------------------|----------------------------------------------------------|
|-----------------------------|----------------------------------------------------------|
|-------8---4--3--1--3-4--8---|---8---9--6--4---3--4---6--9--8--9--11--9--8--6--4--3-----|
|---6-------------------------|----------------------------------------------------------|


Chorus "Gutted like fools' paradise" (!)

|-------------------------------------------------------------------|
|-------------------------------------------------------------------|
|-------------------------------------------------------------------|
|---------------------------------------------5-6-5-----------------|
|--7~-----------10~-----------11~-----------------------------------|
|-----00000000------000000000-----000000000-----------5-6-5---------|

Then again play the first riffs all over again...



Riff 4

"Interdependant as worms to the grave..."   not sure about this part!

|-----------------------------------------------------------------------------|
|-----------------------------------------------------------------------------|
|-----------------------------------------------------------------------------|
|----------------------------------------9-9-9-9-9-9--3-3-3-3-----2-2-2-------|
|-----6p5-6p5-6p5-6p5-6p5-6p5-6p5-6p5----9-9-9-9-9-9--3-3-3-3-----2-2-2-------|
|-----4p3-4p3-4p3-4p3-4p3-4p3-4p3-4p3----7-7-7-7-7-7--1-1-1-1-----0-0-0-------|
                                                                  . . .
Then comes Chorus...

After the chorus there is a long speech with no guitars and the song ends with this
final riff...

Outro

|------------------------------------------------------------------------------|
|------------------------------------------------------------------------------|
|----------------------------------------9~~~~~--9-7-9-10-9-7------------------|
|--------7-----7~----6-7-6-7-6-7--9--10------------------------10-9------------|   gtr. 1
|-000000---000-----------------------------------------------------------------|
|------------------------------------------------------------------------------|
|                                                                              |
|------------------------------------------------------------------------------|
|------------------------------------------------------------------------------|
|------------------------------------------------------------------------------|
|------2---2-------------4---5--9999999999---55555--444444---------------------|   gtr. 2
|-0000-0---0----00000----2---3--7777777777---33333--222222---------------------|
|------------------------------------------------------------------------------|

Enjoy!!!!!!!!!!!!!!!!!!!1
            
Submit corrections

comments powered by Disqus
↑ Back to top | Cradle Of Filth Tabs for Death Magick For Adepts. Lyrics for acoustic guitar and electric guitar. 1 Tablatures and chords are parodies/interpretations of the original songs. You may use it for private study, scholarship, research or language learning purposes only