» » »

Cradle Of Filth, Dawn Of Eternity Tabs (ver.2)

Artists:  A B C D E F G H I J K L M N O P Q R S T U V W X Y Z # 

Dawn Of Eternity Tabs (ver.2)

Cradle Of Filth Tabs
 Rating:
4/5 (4 votes)
Dawn Of Eternity lessons Tabs too difficult? Try these video lessons and learn fast
                Band:  Cradle of Filth




\/ - Bar Dive
.  - palm mute           /  - slide up to
\  - slide down to       ~  - vibrato

Standard D tuning

Intro
|-------------------------------------------------------------------|
|-------------------------------------------------------------------|
|-----4---3-----------------4---3-----------------------------------|
|-2---4---3-------------2---4---3----5---4--------------------------|
|-2---2---1----5---4----2---2---1----5---4--------------------------|
|-0------------3---2----0------------3---2--------------------------|
pm             .   .                 .   .

|-------------------------------------------------------------------|
|-------------------------------------------------------------------|
|-------------------------------------------------------------------|
|-2-------2-------2-------4-------3-------3-------3-----------------|
|-2-------2-------2-------2-------1-------1-------1---------5--4----|
|-0--0-0--0--0-0--0--0-0-----0-0-----0-0-----0-0-----0-0-0--3--2----|
pm   . .     . .     . .     . .     . .     . .     . . .  .  .

|-------------------------------------------------------------------|
|-------------------------------------------------------------------|
|-------------------------------------------------------------------|
|-2-----------------------------------------------------------------|
|-2-----------------------------------------------------------------|
|-0-----------------------------------------------------------------|


Rhy Fig 1
|-------------------------------------------------------------------------|
|-------------------------------------------------------------------------|
|-------------------------------------------------------------------------|
|-3-------------------3-----------3--4----3------------------3------------|
|-1-------------------1-----------1--2----1------------------1------------|
|---0-0-0-0-0-0-0-0------0-0-0-0-------------0-0-0-0-0-0-0-0---0-0-0-0----|

|-------------------------------------------------------------------|
|-------------------------------------------------------------------|
|-------------------------------------------------------------------|
|-------------------------------------------------------------------|
|-------------------------------------------------------------------|
|-3-2-1-0-----------------------------------------------------------|
pm. . . .

Rhy. Fig 2
|--------------------------------------------------------------------|
|--------------------------------------------------------------------|
|--------------------------------------------------------------------|
|--------------------------------------10-10-9-9-7-7-7-7-------------|
|-7-7-7-7-7-7-7-7-7-7-9-9-9-9-7-7-7-7--------------------10-10-10-10-|
|--------------------------------------------------------------------|

|--------------------------------------------------------------------|
|--------------------------------------------------------------------|
|--------------------------------------------------------------------|
|--------------------------------------------------------------------|
|-9-9-9-9-7-7-7-7-9-9-10-10------------------------------------------|
|--------------------------------------------------------------------|

 Fill
|--------------------------------------------------------------------|
|--------------------------------------------------------------------|
|--------------------------------------------------------------------|
|-2------------------------------------------------------------------|
|-2----------2-2-2-2-2-2-2-2-----------------------------------------|
|-0----------0-0-0-0-0-0-0-0-----------------------------------------|

Rhy Fig 3
|-------------------------------------------------------------------------------|
|-------------------------------------------------------------------------------|
|-------------------------------------------------------------------------------|
|-------------------------------------------------------------------------------|
|-------------------------------------------------------------------------------|
|-----0-0-000--0-0-000--0-0-000--0-0-000--3-3-333--3-3-333--2-2-222--2-2-222----|
pm    . . ...  . . ...  . . ...  . . ...  . . ...  . . ...  . . ...  . . ...

Fill
|--------------------------------------------------------------------|
|--------------------------------------------------------------------|
|--------------------------------------------------------------------|
|-555555555555555555555555----3\/----3\/----3-4---3\/---3\/---3\/----|
|-777777777777777777777777----1\/----1\/----1-2---1\/---1\/---1\/----|
|-000000000000000000000000-------------------------------------------|

|--------------------------------------------------------------------|
|--------------------------------------------------------------------|
|--------------------------------------------------------------------|
|-2------------------------------------------------------------------|
|-2------------------------------------------------------------------|
|-0------------------------------------------------------------------|

Again, listen to the song to get the timing and speed down.
I left the lead out but will add it later.
            
Submit corrections

comments powered by Disqus
↑ Back to top | Cradle Of Filth Tabs for Dawn Of Eternity. Lyrics for acoustic guitar and electric guitar. Tablatures and chords are parodies/interpretations of the original songs. You may use it for private study, scholarship, research or language learning purposes only