>
 >
Darkness Incarnate

Darkness Incarnate Guitar Tabs

Cradle Of Filth - Darkness Incarnate chords, tabs, tablatures, lyrics

Guitar lessons | Add/correct | Request | Top 50 tabs Artists:  A B C D E F G H I J K L M N O P Q R S T U V W X Y Z 0-9

Darkness Incarnate Guitar Tabs – Cradle Of Filth

CD, Sheet music, Poster

Do you like Darkness Incarnate? Share with your friends now
Tabs
Cradle of Filth
Godspeed on the Devil's thunder


use the comments option for corrections/suggestions thanks!

v1.0 October 2008



(01:17) Riff A

d:-------------------------------------------------------------------|
A:-------------------------------------------------------------------|
F:o------------------------------------------------------------------|
C:o------------------------------------------------------------------|
G:---------8-8-8-7-7-7-8-8-8-------8-8-8-7-7-7-8-8-8-------10-10-10--|
D:---5-5-5-------------------6-6-6-------------------8-8-8-----------|


d:-------------------------------------------------------------------|
A:-------------------------------------------------------------------|
F:-------------------------------------------------------------------|
C:-------------------------------------------------------------------|
G:--8-8-8-7-7-7-8-8-8-10-10-10-8h10p8-7-------8-8-8-7-7-7-8-8-8------|
D:--------------------------------------5-5-5-------------------6-6--|


d:-------------------------------------------------------------------|
A:-------------------------------------------------------------------|
F:-------------------------------------------------------------------|
C:----------------------------------------------------------------7--|
G:----8-8-8-7-7-7-8-8-8-------10-10-10-8-8-8-7-7-7-8-8-8-10-10-10----|
D:--6-------------------8-8-8----------------------------------------|


d:-------------------------------------------------------------------|
A:-------------------------------------------------------------------|
F:------------------------------------------------------------------o|
C:--7-7-------------------------------------------------------------o|
G:------10-10-10-----------------------------------------------------|
D:-------------------------------------------------------------------|



(01:33) Riff B

d:-------------------------------------------------------------------|
A:-------------------------------------------------------------------|
F:-------------------------------------------------------------------|
C:---------------8-8-7-7-7-7-8-8-7-8-10-10-10-10-10-10-10-10-8-8-7-7-|
G:---7-7-7-7-7-7-6-6-5-5-5-5-6-6-5-6-8--8--8--8--8--8--8--8--6-6-5-5-|
D:---5-5-5-5-5-5-----------------------------------------------------|


d:-------------------------------------------------------------------|
A:-------------------------------------------------------------------|
F:-------------------------------------------------------------------|
C:--8-8-10-10--------------8-8-7-7-7-7-8-8-7-8-10-10-10-10-10-10-10--|
G:--6-6-8--8---7-7-7-7-7-7-6-6-5-5-5-5-6-6-5-6-8--8--8--8--8--8--8---|
D:-------------5-5-5-5-5-5-------------------------------------------|


d:-------------------------------------------------------------------|
A:-------------------------------------------------------------------|
F:-------------------------------------------------------------------|
C:--10-10-10-10-10-9-9-9-9-------------------------------------------|
G:--8--8--8--8--8--7-7-7-7-------------------------------------------|
D:-------------------------------------------------------------------|



(01:59) Riff C

d:-------------------------------------------------------------------|
A:-------------------------------------------------------------------|
F:-------------------------------------------------------------------|
C:---10---7----6----4------------------------------------------------|
G:---8----5----4----2------------------------------------------------|
D:-------------------------------------------------------------------|



(02:01) Riff D

d:-------------------------------------------------------------------|
A:-------------------------------------------------------------------|
F:o------------------------------------------------------------------|
C:o------------------------------------------------------------------|
G:---2-2-5p2---2-2-5p2--2-2-5p2--3-3-5p3--2-2-5p2---2-2-5p2--3-3-5-5-|
D:-------------------------------------------------------------------|


d:-------------------------------------------------------------------|
A:-------------------------------------------------------------------|
F:------------------------------------------------------------------o|
C:------------------------------------------------------------------o|
G:--3-3-2-2----------------------------------------------------------|
D:-------------------------------------------------------------------|



(02:11) Riff E

d:-------------------------------------------------------------------|
A:-------------------------------------------------------------------|
F:-------------------------------------------------------------------|
C:---9--9--9--7--10--9--9--9--12--10-9--9--9--7--10--8--7------------|
G:---7--7--7--5--8---7--7--7--10--8--7--7--7--5--8---6--5--2-2-2-3---|
D:-------------------------------------------------------------------|


d:-------------------------------------------------------------------|
A:-------------------------------------------------------------------|
F:------------------------------------------------------------------o|
C:--9--9--9--7--10--9--9--9--12--10--9--9--9--7--10--9--5---8---6---o|
G:--7--7--7--5--8---7--7--7--10--8---7--7--7--5--8---7--3---6---4----|
D:-------------------------------------------------------------------|



(02:20) Riff F

d:-------------------------------------------------------------------|
A:-------------------------------------------------------------------|
F:-------------------------------------------------------------------|
C:---7---------7---------6---------6---------------------------------|
G:---5-5-5-5-5-5-5-5-5-5-4-4-4-4-4-4--6-5-8----------8--4-3-2-3------|
D:------------------------------------4-3-6--6-6-6-6-6--2-1-0-1------|


d:-------------------------------------------------------------------|
A:-------------------------------------------------------------------|
F:-------------------------------------------------------------------|
C:---7---------7---------6---------6---------------------------------|
G:---5-5-5-5-5-5-5-5-5-5-4-4-4-4-4-4--6-5-8----------8--4-3-2-3-4-3--|
D:------------------------------------4-3-6--6-6-6-6-6--2-1-0-1-2-1--|


d:-------------------------------------------------------------------|
A:-------------------------------------------------------------------|
F:-------------------------------------------------------------------|
C:-------------------------------------------------------------------|
G:-------------------------------------------------------------------|
D:--0-0-0-0----------------------------------------------------------|



(03:49) Riff G

d:-------------------------------------------------------------------|
A:-------------------------------------------------------------------|
F:o-----------------------------------------------------------------o|
C:o---------9-9-9-9-8-8-8-8-8-8-8-8---------------------------------o|
G:----------7-7-7-7-6-6-6-6-6-6-6-6-5-5-5-5-5-5-5-5-6-6-6-6-6-6-6-6--|
D:--0-0-0-0-------------------------3-3-3-3-3-3-3-3-4-4-4-4-4-4-4-4--|



(04:08) Riff H

d:-------------------------------------------------------------------|
A:-------------------------------------------------------------------|
F:o-----------------------------------------------------------------o|
C:o-----------------------------------------------------------------o|
G:----------7-7-7-7---6-6-6-6-6-6-6----------------------------------|
D:--0-0-0-0---------0---------------3-3-3-3-3-3-3-3-4-4-4-4-4-4-4-4--|



(04:44) Riff I

d:-------------------------------------------------------------------|
A:-------------------------------------------------------------------|
F:o-----------------------------------------------------------------o|
C:o-----------------------------------------------------------------o|
G:---2--3--4--3--2--3--4--3--2--3--4--3--2-3--4-3-2-3----------------|
D:---0--1--2--1--0--1--2--1--0--1--2--1--0-1--2-1-0-1----------------|


d:-------------------------------------------------------------------|
A:-------------------------------------------------------------------|
F:-------------------------------------------------------------------|
C:---------------------------------------5-4-------------------------|
G:---2--3--4--3--2--3--4--3--2--3--4--3--3-2-4-3----------4-8-6-7----|
D:---0--1--2--1--0--1--2--1--0--1--2--1------2-1--4-4-4-4-2-6-4-5----|



(05:04) Riff J

d:-------------------------------------------------------------------|
A:-------------------------------------------------------------------|
F:-------------------------------------------------------------------|
C:-------------------------------------------------------------------|
G:---------8-8-8-7-7-7-8-8-8-------8-8-8-7-7-7-8-8-8-------10-10-10--|
D:---5-5-5-------------------6-6-6-------------------8-8-8-----------|


d:-------------------------------------------------------------------|
A:-------------------------------------------------------------------|
F:-------------------------------------------------------------------|
C:-------------------------------------------------------------------|
G:--8-8-8-7-7-7-8-8-8-10-10-10-8h10p8-7-------8-8-8-7-7-7-8-8-8------|
D:--------------------------------------5-5-5-------------------6-6--|


d:-------------------------------------------------------------------|
A:-------------------------------------------------------------------|
F:-------------------------------------------------------------------|
C:----------------------------------------------------------------7--|
G:----8-8-8-7-7-7-8-8-8-------10-10-10-8-8-8-7-7-7-8-8-8-10-10-10----|
D:--6-------------------8-8-8----------------------------------------|


d:-------------------------------------------------------------------|
A:-------------------------------------------------------------------|
F:-------------------------------------------------------------------|
C:--7-7--------------------------------------------------------------|
G:------10-10-10-------8-8-8-7-7-7-8-8-8-------8-8-8-7-7-7-8-8-8-----|
D:---------------5-5-5-------------------6-6-6-------------------8-8-|


d:-------------------------------------------------------------------|
A:-------------------------------------------------------------------|
F:-------------------------------------------------------------------|
C:-------------------------------------------------------------------|
G:----8-8-8-7-7-7-8-8-8-10-10-10-8h10p8-7-------8-8-8-7-7-7-8-8-8----|
D:--8-------------------------------------5-5-5-------------------6--|


d:-------------------------------------------------------------------|
A:-------------------------------------------------------------------|
F:-------------------------------------------------------------------|
C:-------------------------------------------------------------------|
G:------8-8-8-7-7-7-8-8-8-------10-10-10-8-8-8-7-7-7--7--------------|
D:--6-6-------------------8-8-8-----------------------5--------------|



(06:38) Riff K

d:-------------------------------------------------------------------|
A:-------------------------------------------------------------------|
F:------------5---3--------------------------------------------------|
C:---2--------5---3----2--------5---3--------------------------------|
G:---2--------3---1----2--------5---3--------3-3---------------------|
D:---0-----------------0--------3---1--------1-1---------------------|



(06:56) Riff L

d:-------------------------------------------------------------------|
A:-------------------------------------------------------------------|
F:o------------------------------------------------------------------|
C:o------------------------------------------------------------------|
G:---5-8-7-5--5-5-5-5-5-8-7-5--5-5-5-7-8-7-8--8-8-8-8-10-8-7-8-10-8--|
D:---3-6-5-3--3-3-3-3-3-6-5-3--3-3-3-5-6-5-6--6-6-6-6-8--6-5-6-8--6--|


d:-------------------------------------------------------------------|
A:-------------------------------------------------------------------|
F:------------------------------------------------------------------o|
C:------------------------------------------------------------------o|
G:---6-5-------------------------------------------------------------|
D:---6-5-------------------------------------------------------------|



(07:15) Riff M

d:-------------------------------------------------------------------|
A:-------------------------------------------------------------------|
F:-------------------------------------------------------------------|
C:-------------------------------------------------------------------|
G:---5-8-7-5----5-8-7-5--7-8---10-8-7-8-10-8--6-5--------------------|
D:---3-6-5-3----3-6-5-3--5-6---8--6-5-6-8--6--6-5--------------------|



(07:34) Riff N

d:-------------------------------------------------------------------|
A:-------------------------------------------------------------------|
F:o-----------5---3-------------------------------------------------o|
C:o--2--------5---3----2--------5---3-------------------------------o|
G:---2--------3---1----2--------5---3--------3-3---------------------|
D:---0-----------------0--------3---1--------1-1---------------------|





Comments


Popular Cradle Of Filth tabs & chords
Hurt And Virtue Intro Bass Tabs
Nymphetamine 4 Bass Tabs
Thank God For The Suffering Bass Tabs
A Gothic Romance Tabs
Coffin Fodder 4 Tabs
Dusk And Her Embrace Tabs
Malice Through The Looking Glass Tabs
Nymphetamine 10 Tabs
Serpent Tongue 1 Tabs
The Nun With The Astral Habit Tabs


Song lyrics



↑ Back to top | Tablatures and chords are parodies/interpretations of the original songs. You may use it for private study, scholarship, research or language learning purposes only
© 2014 AZChords.com Contact us | Privacy policy | DMCA | Add/correct tabs | Request tabs | Top 50 tabs