>
 >
Cthulhu Dawn 4

Cthulhu Dawn 4 Guitar Tabs

Cradle Of Filth - Cthulhu Dawn 4 chords, tabs, tablatures, lyrics

Guitar lessons | Add/correct | Request | Top 50 tabs Artists:  A B C D E F G H I J K L M N O P Q R S T U V W X Y Z 0-9

Cthulhu Dawn 4 Guitar Tabs – Cradle Of Filth

CD, Sheet music, Poster

Do you like Cthulhu Dawn 4? Share with your friends now
Bass TabsBass Tabs v2TabsTabs v2Tabs v3Tabs v4Tabs v5
Cradle of Filth - Cthulu Dawn

It sounds wicked 
Tuning Drop C{CGCFAD}

I'm Pretty Sure these tabs are 99% Right

Intro:
Both guitars
|-------------------------|----------------------------|-----------------------------|-------------------|
|-------------------------|----------------------------|-----------------------------|-------------------|
|-------------------------|----------------------------|-----------------------------|-------------------|
|-------------------------|----------------------------|-----------------------------|--3-3-3-3-6-6-6-6--|   X2
|----------7"--8"----7"---|-----------7"----8"----7"---|---5"------12"--10"----12"---|--3-3-3-3-6-6-6-6--|
|---5"--------------------|---4"-----------------------|-----------------------------|--1-1-1-1-4-4-4-4--|

Both Guitars
|-------------------------------------------------|-------------------------------------------------|\
|-------------------------------------------------|-------------------------------------------------| \
|-------------------------------------------------|-------------------------------------------------|  \
|----7-10-9-10-7-10-9-10-7-10-9-10-7-10-9-10------|----6-10-9-10-6-10-9-10-6-10-9-10-6-10-9-10------|   \
|-------------------------------------------------|-------------------------------------------------|    \
|-------------------------------------------------|-------------------------------------------------|     \
|                                                                                                   |      X2
|---------------------------------------------------------------------------------------------------|     /
|---------------------------------------------------------------------------------------------------|    /
|--------------------------------------------------------------------------------------16-----------|   /
|--12-15-14-15-12-15-14-15-12-15-14-15-12-15-14-15-15-18-17-18-15-18-17-18-15-18-17-18----18-17-18--|  /
|---------------------------------------------------------------------------------------------------| /
|---------------------------------------------------------------------------------------------------|/


Both guitars
|-------------------------|----------------------------|-----------------------------|-------------------|
|-------------------------|----------------------------|-----------------------------|-------------------|
|-------------------------|----------------------------|-----------------------------|-------------------|
|-------------------------|----------------------------|-----------------------------|--3-3-3-3-6-6-6-6--|   X2
|----------7"--8"----7"---|-----------7"----8"----7"---|---5"------12"--10"----12"---|--3-3-3-3-6-6-6-6--|
|---5"--------------------|---4"-----------------------|-----------------------------|--1-1-1-1-4-4-4-4--|


|--------------------------|--------------------------|----------|----------|
|--------------------------|--------------------------|----------|----------|
|--------------------------|--------------------------|----------|----------|
|--------------------------|--------------------------|---4"-----|---7"-----|  X4
|--4--4-(4)-4--4--4--5--4--|--4--4-(4)-4--4--4--5--4--|---2"-----|---5"-----|
|--2--2-(2)-2--2--2--3--2--|--2--2-(2)-2--2--2--3--2--|----------|----------|


Paul
|-------------|-------------|------------------|-------------|-------------|  
|-------------|-------------|------------------|-------------|-------------|            
|-------------|-------------|------------------|-------------|-------------|            
|-------------|-------------|------------------|-------------|-------------|            
|---7"--------|---8"--------|-13"-----15"-13"--|---12"-------|---7"--------|            
|-------------|-------------|------------------|-------------|-------------|    
|                                                                          |     
|Gian                                                                      |     
|-------------|-------------|------------------|-------------|-------------|     
|-------------|-------------|------------------|-------------|-------------|    
|-------------|-------------|--3"--------------|--2"---------|-------------|   
|---2"--------|---3"--------|--3"--------------|--2"---------|---2"--------| 
|---2"--------|---3"--------|--1"--------------|--0"---------|---2"--------| 
|---0"--------|---1"--------|------------------|-------------|---0"--------|

Paul 
|-------------|----------------------|----------------------|
|-------------|----------------------|----------------------|
|-------------|----------------------|----------------------|
|-------------|--11-----------11-12--|--11-----------11-12--|
|---8"--------|--11-----------11-12--|--11-----------11-12--|
|-------------|--9--9-9-9-9-9--9-10--|--9--9-9-9-9-9--9-10--|
|                   . . . . .              . . . . .        |
|Gian                                                       |
|-------------|----------------------|----------------------|
|-------------|----------------------|----------------------|
|-------------|----------------------|----------------------|
|---3"--------|--11-----------11-12--|--11-----------11-12--|
|---3"--------|--11-----------11-12--|--11-----------11-12--|
|---1"--------|--9--9-9-9-9-9--9-10--|--9--9-9-9-9-9--9-10--|
                    . . . . .              . . . . .

Play the Last Four Riffs Twice

Brief Intermission then


Both Guitars
|-------------------------------------------------|-------------------------------------------------|\
|-------------------------------------------------|-------------------------------------------------| \
|-------------------------------------------------|-------------------------------------------------|  \
|----7-10-9-10-7-10-9-10-7-10-9-10-7-10-9-10------|----6-10-9-10-6-10-9-10-6-10-9-10-6-10-9-10------|   \
|-------------------------------------------------|-------------------------------------------------|    \
|-------------------------------------------------|-------------------------------------------------|     \
|                                                                                                   |      X2
|---------------------------------------------------------------------------------------------------|     /
|---------------------------------------------------------------------------------------------------|    /
|--------------------------------------------------------------------------------------16-----------|   /
|--12-15-14-15-12-15-14-15-12-15-14-15-12-15-14-15-15-18-17-18-15-18-17-18-15-18-17-18----18-17-18--|  /
|---------------------------------------------------------------------------------------------------| /
|---------------------------------------------------------------------------------------------------|/


Both guitars
|-------------------------|----------------------------|-----------------------------|-------------------|
|-------------------------|----------------------------|-----------------------------|-------------------|
|-------------------------|----------------------------|-----------------------------|-------------------|
|-------------------------|----------------------------|-----------------------------|--3-3-3-3-6-6-6-6--|   X2
|----------7"--8"----7"---|-----------7"----8"----7"---|---5"------12"--10"----12"---|--3-3-3-3-6-6-6-6--|
|---5"--------------------|---4"-----------------------|-----------------------------|--1-1-1-1-4-4-4-4--|


|--------------------------|--------------------------|----------|----------|
|--------------------------|--------------------------|----------|----------|
|--------------------------|--------------------------|----------|----------|
|--------------------------|--------------------------|---4"-----|---7"-----|  X4
|--4--4-(4)-4--4--4--5--4--|--4--4-(4)-4--4--4--5--4--|---2"-----|---5"-----|
|--2--2-(2)-2--2--2--3--2--|--2--2-(2)-2--2--2--3--2--|----------|----------|


Paul 
|----------------------|----------------------|
|----------------------|----------------------|
|----------------------|----------------------|
|--11-----------11-12--|--11-----------11-12--|
|--11-----------11-12--|--11-----------11-12--|
|--9--9-9-9-9-9--9-10--|--9--9-9-9-9-9--9-10--|
|     . . . . .              . . . . .        |
|Gian                                         |
|----------------------|----------------------|
|----------------------|----------------------|
|----------------------|----------------------|
|--11-----------11-12--|--11-----------11-12--|
|--11-----------11-12--|--11-----------11-12--|
|--9--9-9-9-9-9--9-10--|--9--9-9-9-9-9--9-10--|
      . . . . .              . . . . . 


Paul
|-------------|-------------|------------------|-------------|-------------|  
|-------------|-------------|------------------|-------------|-------------|            
|-------------|-------------|------------------|-------------|-------------|            
|-------------|-------------|------------------|-------------|-------------|            
|---7"--------|---8"--------|-13"-----15"-13"--|---12"-------|---7"--------|            
|-------------|-------------|------------------|-------------|-------------|    
|                                                                          |     
|Gian                                                                      |     
|-------------|-------------|------------------|-------------|-------------|     
|-------------|-------------|------------------|-------------|-------------|    
|-------------|-------------|--3"--------------|--2"---------|-------------|   
|---2"--------|---3"--------|--3"--------------|--2"---------|---2"--------| 
|---2"--------|---3"--------|--1"--------------|--0"---------|---2"--------| 
|---0"--------|---1"--------|------------------|-------------|---0"--------|

Paul 
|-------------|----------------------|----------------------|
|-------------|----------------------|----------------------|
|-------------|----------------------|----------------------|
|-------------|--11-----------11-12--|--11-----------11-12--|
|---8"--------|--11-----------11-12--|--11-----------11-12--|
|-------------|--9--9-9-9-9-9--9-10--|--9--9-9-9-9-9--9-10--|
|                   . . . . .              . . . . .        |
|Gian                                                       |
|-------------|----------------------|----------------------|
|-------------|----------------------|----------------------|
|-------------|----------------------|----------------------|
|---3"--------|--11-----------11-12--|--11-----------11-12--|
|---3"--------|--11-----------11-12--|--11-----------11-12--|
|---1"--------|--9--9-9-9-9-9--9-10--|--9--9-9-9-9-9--9-10--|
                    . . . . .              . . . . .

Play the Last Four Riffs Twice


Both Guitars
|-------------------------------|-------------------------------|\
|-------------------------------|-------------------------------| \
|-------------------------------|-------------------------------|  \
|-------------------------------|-------------------------------|   \ 
|----------7-8-7---------7-8-7--|----------7-8-7---------7-8-7--|    \
|--0-0-0-0-------0-0-0-0--------|--0-0-0-0-------0-0-0-0--------|     \
|                                                               |     X2
|-------------------------------|-------------------------------|     /
|-------------------------------|-------------------------------|    /
|-------------------------------|-------------------------------|   /
|-------------------------------|-------------------------------|  /
|-------------------------------|-------------------------------| /
|--8----11-10-11--8----11-10-11-|--7-----10-9-10--7----10-9-10--|/
Palm Mute all 0's

Play the Next 4 Riffs Twice
Paul
|-----------------------|-----------------------|----------------------------|----------------------------|
|-----------------------|-----------------------|----------------------------|----------------------------|
|-----------------------|-----------------------|----------------------------|----------------------------|
|--8p7h8-----8p7h8------|--8p7h8-----8p7h8------|-11p10h11-----11p10h11------|-11p10h11-----11p10h11------|
|--------0-0-------0-0--|--------0-0-------0-0--|----------0-0----------0-0--|----------0-0----------0-0--|
|-----------------------|-----------------------|----------------------------|----------------------------|
|                                                                                                         |
|Gian                                                                                                     |
|-----------------------|-----------------------|----------------------------|----------------------------|
|-----------------------|-----------------------|----------------------------|----------------------------|
|-----------------------|-----------------------|----------------------------|----------------------------|
|--8p7h8-----8p7h8------|--8p7h8-----8p7h8------|--8p7h8--------8p7h8--------|--8p7h8--------8p7h8--------|
|--------0-0------------|--------0-0------------|----------0-0----------0-0--|----------0-0----------0-0--|
|-----------------------|-----------------------|----------------------------|----------------------------|

Paul
|--------------------------------------------------------------------------------------------------------------------------------|
|--------------------------------------------------------------------------------------------------------------------------------|
|--------------------------------------------------------------------------------------------------------------------------------|
|--------------------------------------------------------------------------------------------------------------------------------|
|---8-8-8-8-11-10-11-8-8-8-8-11-10-11-8-8-8-8-11-10-11-8-8-8-8-11-10-11----------------------------------------------------------|
|-----------------------------------------------------------------------0-0-0-0-8p7h8-0-0-0-0-8p7h8-0-0-0-0-8p7h8-0-0-0-0-8p7h8--|
|                                                                                                                                |
|Gian                                                                                                                            |
|--------------------------------------------------------------------------------------------------------------------------------|
|--------------------------------------------------------------------------------------------------------------------------------|
|--------------------------------------------------------------------------------------------------------------------------------|
|-----------------------------------------------------------------------2-------------2-------------2-------------2--------------|
|---8-8-8-8-11-10-11-8-8-8-8-11-10-11-8-8-8-8-11-10-11-8-8-8-8-11-10-11-2-------------2-------------2-------------2--------------|
|-----------------------------------------------------------------------0-------0-0-0-0-------0-0-0-0-------0-0-0-0-------0-0-0--|


Both guitars
|-------------------------|----------------------------|-----------------------------|-------------------|
|-------------------------|----------------------------|-----------------------------|-------------------|
|-------------------------|----------------------------|-----------------------------|-------------------|
|-------------------------|----------------------------|-----------------------------|--3-3-3-3-6-6-6-6--|   X2
|----------7"--8"----7"---|-----------7"----8"----7"---|---5"------12"--10"----12"---|--3-3-3-3-6-6-6-6--|
|---5"--------------------|---4"-----------------------|-----------------------------|--1-1-1-1-4-4-4-4--|


Both guitars
|-------------------------|----------------------------|-----------------------------|-------------------|
|-------------------------|----------------------------|-----------------------------|-------------------|
|-------------------------|----------------------------|-----------------------------|-------------------|
|-------------------------|----------------------------|-----------------------------|--6-6-6-6-9-9-9-9--|   
|--------10"--11"---10"---|-----------10"--11"---10"---|---8"------15"--13"----15"---|--6-6-6-6-9-9-9-9--|
|---8"--------------------|---7"-----------------------|-----------------------------|--4-4-4-4-7-7-7-7--|





Comments


Popular Cradle Of Filth tabs & chords
Carrion Bass Tabs
Saffrons Curse Bass Tabs
Tonight In Flames 2 Bass Tabs
Black Metal 1 Tabs
Cruelty Brought Thee Orchards Tabs
Haunted Shores Tabs
No Time To Cry 1 Tabs
Nocturnal Supremacy 1 Tabs
Rise Of The Pentagram 1 Tabs
Scorched Earth Erotica Tabs


Song lyrics



↑ Back to top | Tablatures and chords are parodies/interpretations of the original songs. You may use it for private study, scholarship, research or language learning purposes only
© 2014 AZChords.com Contact us | Privacy policy | DMCA | Add/correct tabs | Request tabs | Top 50 tabs