>
 >
Cthulhu Dawn 3

Cthulhu Dawn 3 Guitar Tabs

Cradle Of Filth - Cthulhu Dawn 3 chords, tabs, tablatures, lyrics

Guitar lessons | Add/correct | Request | Top 50 tabs Artists:  A B C D E F G H I J K L M N O P Q R S T U V W X Y Z 0-9

Cthulhu Dawn 3 Guitar Tabs – Cradle Of Filth

CD, Sheet music, Poster

Do you like Cthulhu Dawn 3? Share with your friends now
Bass TabsBass Tabs v2TabsTabs v2Tabs v3Tabs v4Tabs v5
#------------------------------------------------------------------------------##

                                  CTHULHU DAWN
                         As recorded by Cradle of Filth
                          (From the 2000 Album MIDIAN)

Words and Music by Cradle of Filth

Gtr I (D G C F A D) - 'Guitar I'
Gtr II (D G C F A D) - 'Guitar II'

   Intro
    Q=140
   4/4
    Gtrs I, II
    S S S S S S S S S S S S S S S S   S S S S S S S S S S S S S S S S
||----------------------------------|---------------------------------|
||o---------------------------------|---------------------------------|
||----------------------------------|---------------------------------|
||----------------------------------|---------------------------------|
||o-------------7-7-8-8-8-8-7-7-7-7-|---------7-7-7-7-8-8-8-8-7-7-7-7-|
||--5-5-5-5-5-5---------------------|-4-4-4-4-------------------------|


  Gtr I
  S S S S S S S S S S S S S S S S   H    H
|---------------------------------|------------||
|---------------------------------|-----------o||
|---------------------------------|------------||
|-------------7-7-5-5-5-5-7-7-7-7-|------------||
|-5-5-5-5-5-5---------------------|-3----6----o||
|---------------------------------|-1----4-----||
|
| Gtr II
| S S S S S S S S S S S S S S S S   H    H
|---------------------------------|------------||
|---------------------------------|-----------o||
|---------------------------------|------------||
|---------------------------------|------------||
|-5-5-5-5-5-5-8-8-7-7-7-7-8-8-8-8-|-3----6----o||
|---------------------------------|-1----4-----||


   Riff 2
    Gtrs I, II
    S  S S  S S  S S  S S  S S  S S  S S  S
||------------------------------------------|
||o-----------------------------------------|
||------------------------------------------|
||--7-10p9h10-7-10p9h10-7-10p9h10-7-10p9h10-|
||o-----------------------------------------|
||------------------------------------------|


  S  S S  S S  S S  S S  S S  S S  S S  S
|------------------------------------------|
|------------------------------------------|
|------------------------------------------|
|-6-10p9h10-6-10p9h10-6-10p9h10-6-10p9h10--|
|------------------------------------------|
|------------------------------------------|


  S  S S  S S  S S  S S  S S  S S  S S  S   S S S S S S S S S S S S S S S S
|-----------------------------------------|-------------------------6--------||
|-----------------------------------------|-6-9p8h9-6-9p8h9-6-9p8h9---9p8h9-o||
|-7-10p9h10-7-10p9h10-7-10p9h10-7-10p9h10-|----------------------------------||
|-----------------------------------------|----------------------------------||
|-----------------------------------------|---------------------------------o||
|-----------------------------------------|----------------------------------||


   Verse
    Q=190
    E Q  E E Q  E   E Q  E E Q  E   E Q  E E E E E   E E E E E E E E   4x
||----------------|---------------|----------------|-------------------||
||o---------------|---------------|----------------|------------------o||
||----------------|---------------|----------------|-------------------||
||----------------|---------------|-4-4--4-4-4-4-4-|-7-7-7-7-7-7-7-7---||
||o-4-4--5-4-4--5-|-4-4--5-4-4--5-|-2-2--2-2-2-2-2-|-5-5-5-5-5-5-5-5--o||
||--2-2--3-2-2--3-|-2-2--3-2-2--3-|----------------|-------------------||


   Chorus
    TP         TP         TP      TPTP  TP
    W          W          H.      E E   W
||-----------|----------|-------------|------|
||o----------|----------|-------------|------|
||-----------|----------|-3-------5-3-|-2----|
||--2--------|-3--------|-------------|------|
||o----------|----------|-------------|------|
||-----------|----------|-------------|------|


  TP         TP           PM----|   PM----|         PM----|   PM----|
  W          W          E S S S S E S S S S E E   E S S S S E S S S S E E
|----------|----------|-------------------------|---------------------------||
|----------|----------|-------------------------|--------------------------o||
|----------|----------|-------------------------|---------------------------||
|-2--------|-3--------|-6---------6---------6-7-|-6---------6---------6-7---||
|----------|----------|-4-4-4-4-4-4-4-4-4-4-4-5-|-4-4-4-4-4-4-4-4-4-4-4-5--o||
|----------|----------|-------------------------|---------------------------||


   Verse 2
    Q=140
    W          W     4x
||-----------|-------||
||o----------|------o||
||-----------|-------||
||-----------|-------||
||o----------|------o||
||-----------|-------||


    S  S S  S S  S S  S S  S S  S S  S S  S
||------------------------------------------|
||o-----------------------------------------|
||------------------------------------------|
||--7-10p9h10-7-10p9h10-7-10p9h10-7-10p9h10-|
||o-----------------------------------------|
||------------------------------------------|


  S  S S  S S  S S  S S  S S  S S  S S  S
|------------------------------------------|
|------------------------------------------|
|------------------------------------------|
|-6-10p9h10-6-10p9h10-6-10p9h10-6-10p9h10--|
|------------------------------------------|
|------------------------------------------|


  S  S S  S S  S S  S S  S S  S S  S S  S   S S S S S S S S S S S S S S S S
|-----------------------------------------|-------------------------6--------||
|-----------------------------------------|-6-9p8h9-6-9p8h9-6-9p8h9---9p8h9-o||
|-7-10p9h10-7-10p9h10-7-10p9h10-7-10p9h10-|----------------------------------||
|-----------------------------------------|----------------------------------||
|-----------------------------------------|---------------------------------o||
|-----------------------------------------|----------------------------------||


   Bridge
    Gtr I
    Q.   E Q  Q    Q  Q  Q  Q    Q.   E Q  Q    H    H
||---------------|-------------|--------------|------------||
||o--------------|-------------|--------------|-----------o||
||---------------|-------------|--------------|------------||
||---------------|-------------|------7-5--7--|------------||
||o------7-8--7--|----7--8--7--|-5------------|-3----6----o||
||--5------------|-4-----------|--------------|-1----4-----||
|
|   Gtr II
|   Q.   E Q  Q    Q  Q  Q  Q    Q.   E Q  Q    H    H
||---------------|-------------|--------------|------------||
||o--------------|-------------|--------------|-----------o||
||---------------|-------------|--------------|------------||
||---------------|-------------|--------------|------------||
||o------7-8--7--|----7--8--7--|-5----8-7--8--|-3----6----o||
||--5------------|-4-----------|--------------|-1----4-----||


   Interlude
    Q=190
    PM--|       PM--|         PM--|       PM--|
    S S E S S E S S E S S E   S S E S S E S S E S S E
||--------------------------|-------------------------|
||o-------------------------|-------------------------|
||--------------------------|-------------------------|
||--------------------------|-------------------------|
||o-------8p7h8-------8p7h8-|-------8p7h8-------8p7h8-|
||--0-0-0-------0-0-0-------|-0-0-0-------0-0-0-------|
|
|   PM--|       PM--|         PM--|       PM--|
|   S S E S S E S S E S S E   S S E S S E S S E S S E
||--------------------------|-------------------------|
||o-------------------------|-------------------------|
||--------------------------|-------------------------|
||--------------------------|-------------------------|
||o-------8p7h8-------8p7h8-|-------8p7h8-------8p7h8-|
||--0-0-0-------0-0-0-------|-0-0-0-------0-0-0-------|


     |-3-|    |-3-|      |-3-|    |-3-|
  Q  E E E Q  E E E   Q  E E E Q  E E E
|-------------------|-----------------------||
|-------------------|----------------------o||
|-------------------|-----------------------||
|-------------------|-----------------------||
|-3--6p5h6-3--6p5h6-|-2--6p5h6-2--6p5h6----o||
|-------------------|-----------------------||
|
| W                   W
|-------------------|-----------------------||
|-------------------|----------------------o||
|-------------------|-----------------------||
|-5-----------------|-4---------------------||
|-3-----------------|-2--------------------o||
|-------------------|-----------------------||


          PM|       PM|         PM|       PM|
    S S E E E S S E E E   S S E E E S S E E E
||----------------------|---------------------|
||o---------------------|---------------------|
||----------------------|---------------------|
||--8p7h8-----8p7h8-----|-8p7h8-----8p7h8-----|
||o-------0-0-------0-0-|-------0-0-------0-0-|
||----------------------|---------------------|
|
|         PM|       PM|         PM|       PM|
|   S S E E E S S E E E   S S E E E S S E E E
||----------------------|---------------------|
||o---------------------|---------------------|
||----------------------|---------------------|
||--8p7h8-----8p7h8-----|-8p7h8-----8p7h8-----|
||o-------0-0-------0-0-|-------0-0-------0-0-|
||----------------------|---------------------|


           PM|          PM|            PM|          PM|
   S  S  E E E  S  S  E E E    S  S  E E E  S  S  E E E
|---------------------------|---------------------------|
|---------------------------|---------------------------|
|---------------------------|---------------------------|
|--8p=7h=8------8p=7h=8-----|--8p=7h=8------8p=7h=8-----|
|----------0-0----------0-0-|----------0-0----------0-0-|
|---------------------------|---------------------------|
|
|          PM|          PM|            PM|          PM|
|  S  S  E E E  S  S  E E E    S  S  E E E  S  S  E E E
|---------------------------|---------------------------|
|---------------------------|---------------------------|
|---------------------------|---------------------------|
|-11p10h11-----11p10h11-----|-11p10h11-----11p10-11-----|
|----------0-0----------0-0-|----------0-0----------0-0-|
|---------------------------|---------------------------|


          |-3-|         |-3-|           |-3-|         |-3-|
  S S S S E E E S S S S E E E   S S S S E E E S S S S E E E
|-----------------------------|-----------------------------|
|-----------------------------|-----------------------------|
|-----------------------------|-----------------------------|
|-3-3-3-3-6p5h6-3-3-3-3-6p5h6-|-3-3-3-3-6p5h6-3-3-3-3-6p5h6-|
|-----------------------------|-----------------------------|
|-----------------------------|-----------------------------|
|
|         |-3-|         |-3-|           |-3-|         |-3-|
| S S S S E E E S S S S E E E   S S S S E E E S S S S E E E
|-----------------------------|-----------------------------|
|-----------------------------|-----------------------------|
|-----------------------------|-----------------------------|
|-3-3-3-3-6p5h6-3-3-3-3-6p5h6-|-3-3-3-3-6p5h6-3-3-3-3-6p5h6-|
|-----------------------------|-----------------------------|
|-----------------------------|-----------------------------|


          |-3-|         |-3-|           |-3-|         |-3-|
  S S S S E E E S S S S E E E   S S S S E E E S S S S E E E
|-----------------------------|------------------------------||
|-----------------------------|-----------------------------o||
|-----------------------------|------------------------------||
|-2-2-2-2-6p5h6-2-2-2-2-6p5h6-|-2-2-2-2-6p5h6-2-2-2-2-6p5h6--||
|-----------------------------|-----------------------------o||
|-----------------------------|------------------------------||
|
| Q       Q     Q       Q       Q       Q     Q       Q
|-----------------------------|------------------------------||
|-----------------------------|-----------------------------o||
|-----------------------------|------------------------------||
|-----------------------------|------------------------------||
|-2-------------2-------------|-2-------------2-------------o||
|-0-------------0-------------|-0-------------0--------------||


   Outro
    Q=140
    Gtrs I, II
    W          W     4x
||-----------|-------||
||o----------|------o||
||-----------|-------||
||-----------|-------||
||o----------|------o||
||-----------|-------||


    S S S S S S S S S S S S S S S S   S S S S S S S S S S S S S S S S
||----------------------------------|----------------------------------|
||o---------------------------------|----------------------------------|
||----------------------------------|----------------------------------|
||----------------------------------|----------------------------------|
||o-------------7-7-8-8-8-8-7-7-7-7-|---------7-7-7-7-8-8-8-8-7-7-7-7--|
||--5-5-5-5-5-5---------------------|-4-4-4-4--------------------------|


  Gtr I
  S S S S S S S S S S S S S S S S   H    H
|---------------------------------|------------||
|---------------------------------|-----------o||
|---------------------------------|------------||
|-------------7-7-5-5-5-5-7-7-7-7-|------------||
|-5-5-5-5-5-5---------------------|-3----6----o||
|---------------------------------|-1----4-----||
|
| Gtr II
| S S S S S S S S S S S S S S S S   H    H
|---------------------------------|------------||
|---------------------------------|-----------o||
|---------------------------------|------------||
|---------------------------------|------------||
|-5-5-5-5-5-5-8-8-7-7-7-7-8-8-8-8-|-3----6----o||
|---------------------------------|-1----4-----||


  Q=120
  Gtrs I, II
  Q.    E  Q   Q    Q   Q   Q   Q    Q.    E Q   Q    Q  Q  Q  Q     W
|-----------------|----------------|----------------|-------------|-------*|
|-----------------|----------------|----------------|-------------|-------*|
|-----------------|----------------|----------------|-------------|-------*|
|-----------------|----------------|------10-8--10--|-------------|-------*|
|------10-11--10--|----10--11--10--|-8--------------|-6--6--9--9--|-10----*|
|-8---------------|-7--------------|----------------|-4--4--7--7--|--8----*|


Duration Legend
---------------
W - whole; H - half; Q - quarter; E - 8th; S - 16th; T - 32nd; X - 64th; a - acciaccatura
+ - note tied to previous; . - note dotted; .. - note double dotted
Uncapitalized letters represent notes that are staccato (1/2 duration)
Irregular groupings are notated above the duration line
Duration letters will always appear directly above the note/fret number it represents the
duration for.  Duration letters with no fret number below them represent rests.  Multi-
bar rests are notated in the form Wxn, where n is the number of bars to rest for.  Low
melody durations appear below the staff

Tablature Legend
----------------
 h   - hammer-on
 p   - pull-off
 b   - bend
 pb  - pre-bend
 r   - bend release (if no number after the r, then release immediately)
 /\  - slide into or out of (from/to "nowhere")
 s   - legato slide
 S   - shift slide
  - natural harmonic
[n]  - artificial harmonic
n(n) - tapped harmonic
 ~   - vibrato
 tr  - trill
 T   - tap
 TP  - trem. picking
 PM  - palm muting
\n/  - tremolo bar dip; n = amount to dip
 \n  - tremolo bar down
 n/  - tremolo bar up
/n\  - tremolo bar inverted dip
 =   - hold bend; also acts as connecting device for hammers/pulls
 <>  - volume swell (louder/softer)
 x   - on rhythm slash represents muted slash
 o   - on rhythm slash represents single note slash

Misc Legend
-----------
 |  - bar
||  - double bar
||o - repeat start
o|| - repeat end
*|  - double bar (ending)
 :  - bar (freetime)
 $  - Segno
 &  - Coda
Tempo markers -  = BPM(8/16=s8/s16), where s8 = swing 8ths, s16 = swing 16ths


***************************************************************************************
***************************************************************************************





Comments


Popular Cradle Of Filth tabs & chords
Her Ghost In The Fog 3 Bass Tabs
No Time To Cry Bass Tabs
Nymphetamine 2 Bass Tabs
Portrait Of The Dead Countess 2 Bass Tabs
Beyond The Eleventh Hour Tabs
Cthulhu Dawn 2 Tabs
Honey And Sulphur 1 Tabs
Lustmord And Wargasm Tabs
The Black Goddess Rises Tabs
The Nun With The Astral Habit Tabs


Song lyrics



↑ Back to top | Tablatures and chords are parodies/interpretations of the original songs. You may use it for private study, scholarship, research or language learning purposes only
© 2014 AZChords.com Contact us | Privacy policy | DMCA | Add/correct tabs | Request tabs | Top 50 tabs