» » »

Coffin Fodder Tabs (ver.3)

Artists:  A B C D E F G H I J K L M N O P Q R S T U V W X Y Z # 

Coffin Fodder Tabs (ver.3)

Cradle Of Filth
Rating:
0/5 (0 votes)

Hard to play? Try these video lessons and learn fast.
                p = pull off
h = hammer on
/ = slide up
\ = slide down
pm... = palm mute

standard tuning

intro riff(1) tremolo pick through intro only
|------------------------------------------|
|------------------------------------------|
|------------------------------------------|
|------------------------------------------|
|-1--3434-1-3434/6-4h6p44-4h6p43-6h46-8h68-|
|------------------------------------------|

riff 2a, both guitars
|-----------------------------------------------------------|
|-----------------------------------------------------------|
|-----------------------------------------------------------|
|-3--3-3-6-33333333333-5555-66666666666-5555------------6-8-|
|-1--1-1-4-11111111111-3333-44444444444-3333-6666666666-4-6-|
|-------------------------------------------4444444444------|

riff 2b,both guitars
|----------------------------------------------------------------------|
|----------------------------------------------------------------------|
|----------------------------------------------------------------------|
|-33333333333-6-33333333333-5555-6666-5555------5-6-3333-5555-6666-8888|
|-11111111111-4-11111111111-3333-4444-3333-6666-3-4-1111-3333-4444-6666|
|------------------------------------------4444------------------------|

|riff 3, guitar 1  x2
|----1-----1-------1-------1----4-2-1--1-2-1---4-2-1-2-4-2-4-|
|-----22----22------22------222--------------2---------------|
|-333---3-33---3-33---3-33-----------------------------------|
|------------------------------------------------------------|
|------------------------------------------------------------|
|------------------------------------------------------------|
|
|riff 3, guitar 2   x2
|------------------------------------------------------------|
|-----------------------------------2-4--2-----------4-6-4-6-|
|-3----5-6-5-6-3----5-6-5--------------------5---------------|
|-------------------------6-4--------------------------------|
|------------------------------------------------------------|
|------------------------------------------------------------|

verse riff(4)   x2
|-----------------------------------------------------------|
------------------------------------------------------------|
|-----------------------------------------------------------|
|-3-33-3-33-3-333333-3-33-3-33-565-----------------8-10-8-10|
|-1-11-1-11-1-111111-1-11-1-11-343-6-4-44-4-6-66-6-6--8-6--8|
|----------------------------------4-2-22-2-4-44-4----------|
    pm   ..   ......   ..   ..         ..     ..

riff 2a(w/ different strumming at the beginning) and 2b






it might have a different tuning 
most likely its d-g-c-f-a-d (low to high)
youll have to do this up 2 frets though 
and then figure out the rest
            
Hard to play? Try these video lessons and learn fast. | Correct




comments powered by Disqus
↑ Back to top | Tablatures and chords are parodies/interpretations of the original songs. You may use it for private study, scholarship, research or language learning purposes only