>
 >
Coffin Fodder 1

Coffin Fodder 1 Guitar Tabs

Cradle Of Filth - Coffin Fodder 1 chords, tabs, tablatures, lyrics

Guitar lessons | Add/correct | Request | Top 50 tabs Artists:  A B C D E F G H I J K L M N O P Q R S T U V W X Y Z 0-9

Coffin Fodder 1 Guitar Tabs – Cradle Of Filth

CD, Sheet music, Poster

Do you like Coffin Fodder 1? Share with your friends now
Bass TabsTabsTabs v2Tabs v3Tabs v4

/ = slide up
... = palm mute

Standard tuning: E, A, D, G, B, E

 (0:00)         Intro riff, tremolo pick through intro only
E|----------------------------------------------------------------|
B|----------------------------------------------------------------|
G|----------------------------------------------------------------|
D|----------------------------------------------------------------|
A|-1----3-4-3-4-1----3434/6----4-6-4-4---4-6-4-3----6-4-6----8-6-8|
E|----------------------------------------------------------------|

 (0:08)                    Riff 2
E|----------------------------------------------------------|
B|----------------------------------------------------------|
G|----------------------------------------------------------|
D|-3--3-3-6-33333333333-5555-66666666666-5555------------6-8|
A|-1--1-1-4-11111111111-3333-44444444444-3333-6666666666-4-6|
E|--------------------------------------------4444444444----|

 (0:15)                       Riff 3
E|----------------------------------------------------------------------|
B|----------------------------------------------------------------------|
G|----------------------------------------------------------------------|
D|-33333333333-6-33333333333-5555-6666-5555------5-6-3333-5555-6666-8888|
A|-11111111111-4-11111111111-3333-4444-3333-6666-3-4-1111-3333-4444-6666|
E|------------------------------------------4444------------------------|

 (0:23)                   Riff 4 (GUITAR ONE) X2
E|----1-----1-------1-------1----4-2-1--1-2-1---4-2-1-2-4-2-4|
B|-----22----22------22------222--------------2--------------|
G|-333---3-33---3-33---3-33----------------------------------|
D|-----------------------------------------------------------|
A|-----------------------------------------------------------|
E|-----------------------------------------------------------|

 (0:23)                       Riff 4 (GUITAR TWO) X2
E|-----------------------------------------------------------|
B|-----------------------------------2-4--2-----------4-6-4-6|
G|-3----5-6-5-6-3----5-6-5--------------------5--------------|
D|-------------------------6-4-------------------------------|
A|-----------------------------------------------------------|
E|-----------------------------------------------------------|

 (0:39)                    Verse, Riff 5  X2
E|-----------------------------------------------------------|
B|-----------------------------------------------------------|
G|-----------------------------------------------------------|
D|-3-33-3-33-3-333333-3-33-3-33-565-----------------8-10-8-10|
A|-1-11-1-11-1-111111-1-11-1-11-343-6-4-44-4-6-66-6-6--8-6--8|
E|----------------------------------4-2-22-2-4-44-4----------|
    ..   ..    ......   ..   ..         ..     ..

 (0:55)                         Riff 2
E|----------------------------------------------------------|
B|----------------------------------------------------------|
G|----------------------------------------------------------|
D|-3--3-3-6-33333333333-5555-66666666666-5555------------6-8|
A|-1--1-1-4-11111111111-3333-44444444444-3333-6666666666-4-6|
E|--------------------------------------------4444444444----|

 (1:03)                        Riff 3
E|----------------------------------------------------------------------|
B|----------------------------------------------------------------------|
G|----------------------------------------------------------------------|
D|-33333333333-6-33333333333-5555-6666-5555------5-6-3333-5555-6666-8888|
A|-11111111111-4-11111111111-3333-4444-3333-6666-3-4-1111-3333-4444-6666|
E|------------------------------------------4444------------------------|

 (1:10)             Chorus X4
E|-----------------------------------------------|
B|-----------------------------------------------|
G|-----------------------------------------------|
D|-8-------8-6-5----------------8-------8-6-4-5-6|
A|-6---6---6-4-3--3-3-3-3-3-3---6---6---6-4-2-3-4|
E|-----4----------4-4-4-4-4-4-------4------------|
                 . . . . . .  

 (1:43)              Riff 4 (GUITAR ONE) X2
E|----1-----1-------1-------1----4-2-1--1-2-1---4-2-1-2-4-2-4|
B|-----22----22------22------222--------------2--------------|
G|-333---3-33---3-33---3-33----------------------------------|
D|-----------------------------------------------------------|
A|-----------------------------------------------------------|
E|-----------------------------------------------------------|

 (1:43)              Riff 4 (GUITAR TWO) X2
E|-----------------------------------------------------------|
B|-----------------------------------2-4--2-----------4-6-4-6|
G|-3----5-6-5-6-3----5-6-5--------------------5--------------|
D|-------------------------6-4-------------------------------|
A|-----------------------------------------------------------|
E|-----------------------------------------------------------|

 (1:58)                Verse, Riff 5   x2
E|-----------------------------------------------------------|
B|-----------------------------------------------------------|
G|-----------------------------------------------------------|
D|-3-33-3-33-3-333333-3-33-3-33-565-----------------8-10-8-10|
A|-1-11-1-11-1-111111-1-11-1-11-343-6-4-44-4-6-66-6-6--8-6--8|
E|----------------------------------4-2-22-2-4-44-4----------|
    ..   ..   ......   ..   ..         ..     ..

 (2:14)                     Riff 2
E|----------------------------------------------------------|
B|----------------------------------------------------------|
G|----------------------------------------------------------|
D|-3--3-3-6-33333333333-5555-66666666666-5555------------6-8|
A|-1--1-1-4-11111111111-3333-44444444444-3333-6666666666-4-6|
E|--------------------------------------------4444444444----| 

 (2:22)                       Riff 3
E|----------------------------------------------------------------------|
B|----------------------------------------------------------------------|
G|----------------------------------------------------------------------|
D|-33333333333-6-33333333333-5555-6666-5555------5-6-3333-5555-6666-8888|
A|-11111111111-4-11111111111-3333-4444-3333-6666-3-4-1111-3333-4444-6666|
E|------------------------------------------4444------------------------|

 (2:30)               Chorus X4 
E|-----------------------------------------------|
B|-----------------------------------------------|
G|-----------------------------------------------|
D|-8-------8-6-5----------------8-------8-6-4-5-6|
A|-6---6---6-4-3--3-3-3-3-3-3---6---6---6-4-2-3-4|
E|-----4----------4-4-4-4-4-4-------4------------|
                 . . . . . .  

This goes up to 3:01





Comments


Popular Cradle Of Filth tabs & chords
Beneath The Howling Stars Bass Tabs
Black Metal 2 Bass Tabs
What Dies Within Bass Tabs
Nymphetamine Chords
Mannequin Drum Tabs
Death The Great Adventure Tabs
Dusk And Her Embrace Tabs
Nymphetamine 5 Tabs
Saffron's Curse Tabs
The Promise Of Fever 2 Tabs


Song lyrics



↑ Back to top | Tablatures and chords are parodies/interpretations of the original songs. You may use it for private study, scholarship, research or language learning purposes only
© 2014 AZChords.com Contact us | Privacy policy | DMCA | Add/correct tabs | Request tabs | Top 50 tabs