>
 >
Carrion

Carrion Bass Tabs

Cradle Of Filth - Carrion chords, tabs, tablatures, lyrics

Guitar lessons | Add/correct | Request | Top 50 tabs Artists:  A B C D E F G H I J K L M N O P Q R S T U V W X Y Z 0-9

Carrion Bass Tabs – Cradle Of Filth

CD, Sheet music, Poster

Do you like Carrion? Share with your friends now
Bass TabsTabs
================================================================================
                          C R A D L E   O F   F I L T H

                                       -

                                 C A R R I O N
================================================================================


                               DAMNATION AND A DAY
                             (c) Sony Records - 2003


                       Tune down one step, then Drop D (to C)
                                     C G C F


                                 Tempo = 108 BPM
                              Time Signature = 4/4


                          -----------------------------

                                 PADDY MCMULLAN

                                   Version 1.0
                                22nd February 2009
                             -----------------------

                             Tablature Symbols Used:


 P.M...    -  Palm Mute
 p         -  Pull-Off
 h         -  Hammer-On
 (/)       -  Legato Slide (Blank space indicates length of slide)
 \         -  Slide Down to/Down From (Blank space indicates length of slide)
 /         -  Slide Up To/Up From (Blank space indicates length of slide)
 ( )       -  Ghost Note/Tied Note/Implied Note
 REST      -  Rest and sustain rest for duration of blank space
 |_3_|     -  Triplet Notes
 |___[1]   -  Ending 1/2/3 etc.



================================================================================
Intro: Play once
================================================================================


  1                   2
||--R-              -|--               --|
||--E-              -|--               --|
||--S-              -|--               --|
||--T-              -|--               --|


3  |_3| |_3_| |_3| |_3_| |_3| |_3_| |_3| |_3_|  4
|----------------------------------------------|--------------------------||
|----------------------------------------------|--------------------------||
|--0--0-0-0-0-0--0-0-0-0-0--0-0-0-0-0--0-0-0-0-|--3--4--------------0--1--||
|----------------------------------------------|--------5--6--3--4--------||


5  |_3| |_3_| |_3| |_3_| |_3| |_3_| |_3| |_3_|
|----------------------------------------------|
|----------------------------------------------|
|--0--0-0-0-0-0--0-0-0-0-0--0-0-0-0-0--0-0-0-0-|
|----------------------------------------------|


6  |_3| |_3_| |_3| |_3_| |_3| |_3_| |__3__|  
|--------------------------------------------|
|--------------------------------------------|
|--3--3-3-3-3-3--3-3-3-3-0--0-0-0-0-0--0--0--|
|--------------------------------------------|


7  |_3| |_3_| |_3| |_3_| |_3| |_3_| |_3| |_3_|  8
|----------------------------------------------|--------------------------|
|----------------------------------------------|--------------------------|
|--0--0-0-0-0-0--0-0-0-0-0--0-0-0-0-0--0-0-0-0-|--3--4--------------0--1--|
|----------------------------------------------|--------5--6--3--4--------|


9  |_3_| |_3_| |_3|_ |_3_| |_3_| |_3_| |_3_| |_3_|
|--------------------------------------------------|
|--------------------------------------------------|
|--0-0-0-0-0-0-0-0-0-0-0-0-0-0-0-0-0-0-0-0-0-0-0-0-|
|--------------------------------------------------|


10      |_3_| |_3_|      |__3__|   11     |_3_| |_3_| |_3_| |_3_| |_3_| |_3_|
|---------------------------------|-------------------------------------------|
|---------------------------------|-------------------------------------------|
|--3----0-0-0-0-0-0-0----0--0--0--|--0----0-0-0-0-0-0-0-0-0-0-0-0-0-0-0-0-0-0-|
|---------------------------------|-------------------------------------------|

12                   |_3_|
|-----------------------------|
|-----------------------------|
|--3--4--------------0-0-0-1--|
|--------5--6--3--4-----------|


13 |_3_| |_3_| |_3|_ |_3_| |_3_| |_3_| |_3_| |_3_|
|--------------------------------------------------|
|--------------------------------------------------|
|--0-0-0-0-0-0-0-0-0-0-0-0-0-0-0-0-0-0-0-0-0-0-0-0-|
|--------------------------------------------------|


14 |_3_| |_3_| |_3|_ |_3_| |_3_| |_3_| |_3_| |_3_|
|--------------------------------------------------|
|--------------------------------------------------|
|--3-3-3-3-3-3-3-3-3-3-3-3-0-0-0-0-0-0-0-0-0-0-0-0-|
|--------------------------------------------------|


15 |_3_| |_3_| |_3|_ |_3_| |_3_| |_3_| |_3_| |_3_|
|--------------------------------------------------|
|--------------------------------------------------|
|--0-0-0-0-0-0-0-0-0-0-0-0-0-0-0-0-0-0-0-0-0-0-0-0-|
|--------------------------------------------------|


16 |_3_|    |_3_|    |_3_|    |_3_|
|--------------------------------------||
|--------------------------------------||
|--3-3-3-4--------------------0-0-0-1--||
|-----------5-5-5-6--3-3-3-4-----------||



================================================================================
Verse: Play once
================================================================================


=======
Part 1: x 2
=======


||------------------------|------------------------------|
||------------------------|------------------------------|
||------------------------|------------------------------|
||--0------0-2-3------0-0-|--3--0-0-2--0-0-0--2-3-2--0-2-|

                         |__________________________[1]
|------------------------|----------------------------|
|------------------------|----------------------------|
|------------------------|----------------------------|
|--0------0-2-3------0-0-|--3--0-0-2--0-0-2--8--7--6--|

|__________________________[2]
|----------------------------||
|----------------------------||
|----------------------------||
|--3--0-0-2--0-0-2--9--8--7--||



=======
Part 2: x 2
=======


||------------------------|------------------------|------------------------|
||------------------------|------------------------|------------------------|
||--4----5----4--5--7--8--|--4----5----4--5--8--7--|--4----5----4--5--7--8--|
||------------------------|------------------------|------------------------|


|-------------------------------| |
|-------------------------------|*|
|--11---10---9--13--12--11--12--|*|
|-------------------------------| |



================================================================================
Pre-Chorus: Play once
================================================================================


||------------------------|------------------------------|
||------------------------|------------------------------|
||------------------------|------------------------------|
||--0------0-2-3------0-0-|--3--0-0-2--0-0-0--2-3-2--0-2-|


|------------------------|----------------------------|------------------------|
|------------------------|----------------------------|------------------------|
|------------------------|----------------------------|------------------------|
|--0------0-2-3------0-0-|--3--0-0-2--0-0-2--8--7--6--|--0------0-2-3------0-0-|


|------------------------------|-----------------R-     -|
|------------------------------|-----------------E-     -|
|------------------------------|-----------------S-     -|
|--3--0-0-2--0-0-0--2-3-2--0-2-|--3--0-0-2--0-0--T-     -|


|-----------------R-     -||
|-----------------E-     -||
|-----------------S-     -||
|--3--0-0-2--0-0--T-     -||



================================================================================
Chorus: Play twice
================================================================================


||----------------------------------------|
||----------------------------------------|
||--4--4-4-4-4-4-4-4-4-5--5-5-5-5-5-5-5-4-|
||----------------------------------------|


|---------------------------------------|
|---------------------------------------|
|--0--0-0-0-0-0-0-0-0-7--7-7-7-7-7--7 \ |
|---------------------------------------|


|----------------------------------------|--------------------------------| |
|----------------------------------------|--------------------------------|*|
|--4--4-4-4-4-4-4-4-4-5--5-5-5-5-5-5-5-4-|--0--0-0-0-0-0-0-0-0-0---0---0--|*|
|----------------------------------------|--------------------------------| |



================================================================================
Rest for 2 bars
================================================================================

================================================================================
Play the Intro from bars 11 to 12, then 9 to 12 and then 13 to 16
================================================================================

================================================================================
Play the Pre-Chorus once
================================================================================

================================================================================
Rest for 12 bars
================================================================================

================================================================================
Play Part 2 of the Verse once
================================================================================

================================================================================
Play the Pre-Chorus once
================================================================================

================================================================================
Play the Chorus twice
================================================================================

================================================================================
Outro: 
================================================================================


The Outro consists of the following sections of the Intro:


Bars 9 - 12 x 3
Bar 12 x 2


End on the following:


||-----R-     -||
||-----E-     -||
||--0--S-     -||
||-----T-------||



================================================================================
End
================================================================================


Tab summary:        Intro x 1
                    Verse x 1
                    Pre-Chorus x 1
                    Chorus x 2
                    Intro:
                          Bars 11 - 12 x 1
                          Bars 9 - 12 x 1
                          Bars 13 - 16 x 1
                    Verse (Part 2) x 1
                    Pre-Chorus x 1
                    Chorus x 2
                    Outro:
                          Intro bars 9 - 12 x 3
                          Intro bar 12 x 2
                    END





Comments


Popular Cradle Of Filth tabs & chords
Dirge Inferno Bass Tabs
Lord Abortion 2 Bass Tabs
Serpent Tongue Bass Tabs
A Crescendo Of Passion 1 Tabs
Beneath The Depths Of Evil Tabs
Cemetery And Sundown 2 Tabs
Dawn Of Eternity Tabs
Nymphetamine 5 Tabs
Shat Out Of Hell 1 Tabs
The Raping Of Faith Tabs


Song lyrics



↑ Back to top | Tablatures and chords are parodies/interpretations of the original songs. You may use it for private study, scholarship, research or language learning purposes only
© 2014 AZChords.com Contact us | Privacy policy | DMCA | Add/correct tabs | Request tabs | Top 50 tabs