» » »

Byronic Man Tabs (ver.5)

Artists:  A B C D E F G H I J K L M N O P Q R S T U V W X Y Z # 

Byronic Man Tabs (ver.5)

Cradle Of Filth
Rating:
0/5 (0 votes)

Hard to play? Try these video lessons and learn fast.
                
Tuning: Drop D

INTRO (after strings)
As lonely as a note on the walls of Jericho...  
E|----------------------x3-|--------------------------|
B|-------------------------|--------------------------|
G|-------------------------|--------------------------|
D|-------------------------|--------------------------|
A|-7~----------9~----------|-7~----------9~-----------|
d|-7~-10~-9-7--9~-13~-10-9-|-7~-10~-9-7--9~-13~-14-13-|

VERSE
I proved it...                                        
|-----------------------------------------x4--|
|---------------------------------------------|
|---------------------------------------------|
|--------------------------------------1-—1/3-|
|-7~---------7~---------9~----------9~-1-—1/3-|
|-7~-10-9-7--7~-10-9-7--9~-13-10-9--9~-1—-1/3-|

BRIDGE
Guitar 1 (whole section x2)
|---------------|---------------|------------------|
|---------------|---------------|---------7~--10~--|
|----12-11-9-11-|----12-11-9-11-|-----8~-----------|
|-10------------|-10------------|-9~---------------|
|---------------|---------------|------------------|
|---------------|---------------|------------------|

|---------------|---------------|----------------------|
|---------------|---------------|---------7~--10-7---7-|
|----12-11-9-11-|----12-11-9-11-|-----8~-----------8---|
|-10------------|-10------------|-9~-------------------|
|---------------|---------------|----------------------|
|---------------|---------------|----------------------|

Guitar 2 (whole section x2)
|---------------|---------------|------------------|
|---------------|---------------|---------7~--10~--|
|---------------|---------------|-----8~-----------|
|----10-9--7-9--|----10-9--7-9--|-9~---------------|
|-12------------|-12------------|------------------|
|---------------|---------------|------------------|

|---------------|---------------|----------------------|
|---------------|---------------|---------7~--10-7---7-|
|---------------|---------------|-----8~-----------8---|
|----10-9--7-9--|----10-9--7-9--|-9~-------------------|
|-12------------|-12------------|----------------------|
|---------------|---------------|----------------------|

PRE-CHORUS
|-----------------|-----------------|
|-----------------|-----------------|
|-----------------|-----------------|
|-5-----5-----5---|-----4-----4-----| X2
|---6-3---6-3---6-|-2-6---2-6---2-4-|
|-----------------|-----------------|

CHORUS
They call me bad ...                    
|-----------------------------------------------------x2-|
|--------------------------------------------------------|
|--------------------------------------------------------|
|-9--9-9--9---10--10-10--10---9--9-9—-9---10--10--12--10-|
|-7--7-7--7---8---8--8---8----7--7-7-—7---8---8---10--8--|
|--------------------------------------------------------|

VERSE
Grown wild...
|-----------------------------------------x2--|
|---------------------------------------------|
|---------------------------------------------|
|--------------------------------------1-—1/3-|
|-7~---------7~---------9~----------9~-1-—1/3-|
|-7~-10-9-7--7~-10-9-7--9~-13-10-9--9~-1—-1/3-|

BRIDGE
Guitar 1 (whole section x2)
|---------------|---------------|------------------|
|---------------|---------------|---------7~--10~--|
|----12-11-9-11-|----12-11-9-11-|-----8~-----------|
|-10------------|-10------------|-9~---------------|
|---------------|---------------|------------------|
|---------------|---------------|------------------|

|---------------|---------------|----------------------|
|---------------|---------------|---------7~--10-7---7-|
|----12-11-9-11-|----12-11-9-11-|-----8~-----------8---|
|-10------------|-10------------|-9~-------------------|
|---------------|---------------|----------------------|
|---------------|---------------|----------------------|

Guitar 2 (whole section x2)
|---------------|---------------|------------------|
|---------------|---------------|---------7~--10~--|
|---------------|---------------|-----8~-----------|
|----10-9--7-9--|----10-9--7-9--|-9~---------------|
|-12------------|-12------------|------------------|
|---------------|---------------|------------------|

|---------------|---------------|----------------------|
|---------------|---------------|---------7~--10-7---7-|
|---------------|---------------|-----8~-----------8---|
|----10-9--7-9--|----10-9--7-9--|-9~-------------------|
|-12------------|-12------------|----------------------|
|---------------|---------------|----------------------|

PRE-CHORUS
|-----------------|-----------------|
|-----------------|-----------------|
|-----------------|-----------------|
|-5-----5-----5---|-----4-----4-----| X2
|---6-3---6-3---6-|-2-6---2-6---2-4-|
|-----------------|-----------------|

CHORUS
They call me bad ...                    
|-----------------------------------------------------x2-|
|--------------------------------------------------------|
|--------------------------------------------------------|
|-9--9-9--9---10--10-10--10---9--9-9—-9---10--10--12--10-|
|-7--7-7--7---8---8--8---8----7--7-7-—7---8---8---10--8--|
|--------------------------------------------------------|

VERSE
Grown colder ...                                        
|-----------------------------------------x2--|
|---------------------------------------------|
|---------------------------------------------|
|--------------------------------------1-—1/3-|
|-7~---------7~---------9~----------9~-1-—1/3-|
|-7~-10-9-7--7~-10-9-7--9~-13-10-9--9~-1—-1/3-|

VERSE cont. (this whole section x2)
|---------------------------------|----------------------------------|
|---------------------------------|----------------------------------|
|-2-------------------------------|----------------------------------|
|-2-------------------------------|----------------------------------|
|-0-0-0-0-0-0-0-0-0-0-0-0-0-0-0-0-|--3-3-3-3-3-3-3-3-2-2-2-2-0-0-0-0-|
|---------------------------------|----------------------------------|

|---------------------------------|----------------------------------|
|---------------------------------|----------------------------------|
|---------------------------------|----------------------------------|
|---------------------------------|----------------------------------|
|-2-2-2-2-2-2-2-2-2-2-2-2-2-2-2-2-|--6-6-6-6-6-6-6-6-3-3-3-3-2-2-2-2-|
|---------------------------------|----------------------------------|

AFTER VOCAL AND STRING SECTION
Guitar 1 (play total x3)
|----------------|----------------|-------------------------------|
|----------------|----------------|-------------------------------|
|----------------|----------------|-------------------------------|
|----------------|----------------|----2----2-5-------2-----------|
|-7--10-9--7-7-7-|-7--10-9--7-7-7-|-3~---3~------2-0~---0~--2-0-2-|
|----------------|----------------|-------------------------------|

|----------------|-----------------|-------------------------------|
|----------------|-----------------|-------------------------------|
|----------------|-----------------|-------------------------------|
|----------------|----9-9----------|----2----2-5-------2-----------|
|-7--10-9--7-7-7-|-7------10-9-7-9-|-3~---3~------2-0~---0~--2-0-2-|
|----------------|-----------------|-------------------------------|

Guitar 2 (comes in on Guitar 1’s second time)
|----------------|----------------|-------------------------------|
|----------------|----------------|-------------------------------|
|----------------|----------------|-----------4-------------------|
|-5--9--7--5-5-5-|-5--9--7--5-5-5-|-2~-5-2~-5---------5-----------|
|----------------|----------------|--------------2-0~---0~--2-0-2-|
|----------------|----------------|-------------------------------|

|----------------|-----------------|-------------------------------|
|----------------|-----------------|-------------------------------|
|----------------|----7-7----------|-----------4-------------------|
|-5--9--7--5-5-5-|-5------9--7-5-7-|-2~-5-2~-5---------5-----------|
|----------------|-----------------|--------------2-0~---0~--2-0-2-|
|----------------|-----------------|-------------------------------|

|-----------------|
|-----------------|
|-----------------|
|-----------------|
|-----------------|
|-2-5-4-2-5-4-2-4-|

CHORUS
They call me bad ...                    
|-----------------------------------------------------x4-|-------------------|
|--------------------------------------------------------|-------------------|
|--------------------------------------------------------|-------------------|
|-9--9-9--9---10--10-10--10---9--9-9—-9---10--10--12--10-|-----------------2-|
|-7--7-7--7---8---8--8---8----7--7-7-—7---8---8---10--8--|-----------------2-|
|--------------------------------------------------------|-2-5-4-2-5-4-2-4-2-|
            
Hard to play? Try these video lessons and learn fast. | Correct




comments powered by Disqus
↑ Back to top | Tablatures and chords are parodies/interpretations of the original songs. You may use it for private study, scholarship, research or language learning purposes only