>
 >
Byronic Man 2

Byronic Man 2 Guitar Tabs

Cradle Of Filth - Byronic Man 2 chords, tabs, tablatures, lyrics

Guitar lessons | Add/correct | Request | Top 50 tabs Artists:  A B C D E F G H I J K L M N O P Q R S T U V W X Y Z 0-9

Byronic Man 2 Guitar Tabs – Cradle Of Filth

CD, Sheet music, Poster

Do you like Byronic Man 2? Share with your friends now
TabsTabs v2Tabs v3Tabs v4Tabs v5
-------------------------------------------------------------------------------
-------------------------------------------------------------------------------



Tuning: DGCFAD


         Part1  4X            (guitar1)
D|-----------------------------------------------|
A|-----------------------------------------------|
F|-----------------------------------------------|
C|-----------------------------------------------|
G|-6--9--8\6/8---12--9\8-------------------------|
D|-4--7--6\4/6---10--7\6-------------------------|
         part1  4X            (Guitar2)
D|-----------------------------------------------|
A|-----------------------------------------------|
F|-4--7--6\4/6---10--7\6-------------------------|
C|-----------------------------------------------|
G|-----------------------------------------------|
D|-----------------------------------------------|


        Part2  4X             (Both guitars)
D|-----------------------------------------------|
A|-----------------------------------------------|
F|-4--7-6--4--7-6\4/6---10\7-6-------------------|
C|-----------------------------------------------|
G|-2--5-4--2--5-4\2/4----8\5-4--4-5/6------------|
D|------------------------------3-3/4------------|


	Part3  2X       (Guitar1)
D|-------------------------------------------------------|
A|-------------------------------------------------------|
F|-4~--7-6-4-6-4~---7-6-4-66~----10~-----13~-------16~---|
C|-------------------------------------------------------|
G|-------------------------------------------------------|
D|-------------------------------------------------------|
        Part3   2X      (guitar2)
D|-------------------------------------------------------|
A|-------------------------------------------------------|
F|-7~--10-9-7-9-7~---10-9-7-99~--------------------------|
C|-------------------------------------------------------|
G|---------------------------------11~------8~------5~---|
D|-------------------------------------------------------|


	Part4   2X       (both guitars)
D|------------------------------------------------|
A|------------------------------------------------|
F|------------------------------------------------|
C|-7-3-0--7-3-0--7-3-0-3-6--0-3-6--3-6------------|
G|------------------------------------------------|
D|------------------------------------------------|


	Part5   2X       (both guitars)
D|------------------------------------------------|
A|------------------------------------------------|
F|------------------------------------------------|
C|-6--6-6-6--7--7-7-7--6--6-6-6--7-7-9-7----------|
G|-4--4-4-4--5--7-7-7--4--4-4-4--5-5-7-5----------|
D|-4--4-4-4--5--5-5-5--4--4-4-4--5-5-7-5----------|

       Part2   4X
       Part3   2X
       Part5   2X
       Part2   2X


       Part6   2X
D|------------------------------------------------|
A|------------------------------------------------|
F|-4tr----7tr-6tr-4tr-6tr---10tr-7tr-6tr\\\-------|
C|------------------------------------------------|
G|-2tr----5tr-4tr-2tr-4tr----8tr-5tr-4tr\\\-------|
D|------------------------------------------------|

		D-----------|
		A-----------|
		F-----------|
		C-2--3/5----|
		G-2--3/5----|
		D-0--1/3----|

        SOLO   4X       Guitar1
D---------------------------------------------------------------------------------------------|
A---------------------------------------------------------------------------------------------|
F----------------------------------------------------------6-4--------------------------------|
C-4-7-6-4~--4-7-6-4~--0---4-0-0-4/6--4----4/6--4-7-6-4~--4-----7-4--0--4--0-0-4/6--4-----4/6--|
G-----------------------------------4--4-4----------------------------------------4---4-4-----|
D---------------------------------------------------------------------------------------------|
                        Guitar2
D----------------------------------------------------------------11--9--------------------------------|
A-9-12-11-9~--9-12-11-9~-\5/9\5-5/9/11---9----9/11--9-12-11-9~-9-------12-9-\5/9\5-5/9/11---9----9/11-|
F--------------------------------------8---8-8--------------------------------------------8---8-8-----|
C-----------------------------------------------------------------------------------------------------|
G-----------------------------------------------------------------------------------------------------|
D-----------------------------------------------------------------------------------------------------|

		D------------------|
		A------------------|
		F------------------|
		C------------------|
		G-5-4-2-0----------|
		D--------4-3-1-0---|

         Part5   4X

         End
    D--------------------|
    A--------------------|
    F--------------------|
     C-7-7-9-7-9-6\\\----|
    G-5-5-7-5-7-4\\\-----|
    D-5-5-7-5-7-4\\\-----|


 /  slide up
 \  slide down
  ~  vibrato
 tr tremolo
----------------------------------------------------------------------------------------------------
					      FUND
----------------------------------------------------------------------------------------------------





Comments


Popular Cradle Of Filth tabs & chords
Death Comes Ripping 4 Bass Tabs
Devil Woman Bass Tabs
Nymphetamine 5 Bass Tabs
Portrait Of The Dead Countess 2 Bass Tabs
All Hope In Eclipse 1 Tabs
Beast Of Extermination Tabs
Her Ghost In The Fog 2 Tabs
Lustmord And Wargasm Tabs
Sleepless Tabs
The Twisted Nails Of Faith 1 Tabs


Song lyrics



↑ Back to top | Tablatures and chords are parodies/interpretations of the original songs. You may use it for private study, scholarship, research or language learning purposes only
© 2014 AZChords.com Contact us | Privacy policy | DMCA | Add/correct tabs | Request tabs | Top 50 tabs