» » »

Born In A Burial Gown Tabs (ver.2)

Artists:  A B C D E F G H I J K L M N O P Q R S T U V W X Y Z # 

Born In A Burial Gown Tabs (ver.2)

Cradle Of Filth
Rating:
0/5 (0 votes)

Hard to play? Try these video lessons and learn fast.
                (Intro)
----SONG--NAME--Born-in-a-burial-gown--------Band-Name-cradle-of-filth---------

Tuning:Normal
e|---------------------------------------------------------------------------|
B|---------------------------------------------------------------------------|
G|---------------------------------------------------------------------------|
D|-6-----7----9------7-------------------5-----6-----8-----5-----------------|
A|--777---777---777---777---TIMES-8-------777---777---777---777--TIMES-8-----|
E|---------------------------------------------------------------------------|

e|--------------------------------------------------------------------------------|
B|--------------------------------------------------------------------------------|
G|--------------------------------------------------------------------------------|
D|-8-8-8-8-------------------------------------9-9-9-9----------------------------|
A|-6-6-6-6--6-6-6-6--9-9-9-9--8-8-8-8----------7-7-7-7--8-8-8-8--9-9-9-9--8-8-8-8-|
E|----------4-4-4-4--7-7-7-7--6-6-6-6--REPEAT-----------6-6-6-6--7-7-7-7--6-6-6-6-|

e|---------------------------------------------------------------------------|
B|---------------------------------------------------------------------------|
G|---------------------------------------------------------------------------|
D|---------------------------------------------------------------------------|
A|-11-11-11-11---------------------------------------------------------------|
E|--9--9--9--9---------------------------------------------------------------|

| /  slide up
| \  slide down
| h  hammer-on
| p  pull-off
| ~  vibrato
| +  harmonic
| x  Mute note
            
Hard to play? Try these video lessons and learn fast. | Correct




comments powered by Disqus
↑ Back to top | Tablatures and chords are parodies/interpretations of the original songs. You may use it for private study, scholarship, research or language learning purposes only