>
 >
Beauty Slept In Sodom

Beauty Slept In Sodom Bass Tabs

Cradle Of Filth - Beauty Slept In Sodom chords, tabs, tablatures, lyrics

Guitar lessons | Add/correct | Request | Top 50 tabs Artists:  A B C D E F G H I J K L M N O P Q R S T U V W X Y Z 0-9

Beauty Slept In Sodom Bass Tabs – Cradle Of Filth

CD, Sheet music, Poster

Do you like Beauty Slept In Sodom? Share with your friends now
Bass TabsTabsTabs v2
Cradle of Filth -  Beauty Slept in Sodom 
 

drop d
G
D
A
D



-------------------|-------------------|--------------|-------------------|
-------------------|-------------------|--------------|-------------------|
--3----------------|--------------3----|--1-----------|--------------1----|
-------------------|-------------------|--------------|-------------------|



-------------------|------------------|---------------|-------------------|
-------------------|------------------|--0------------|-------------------|
--0----------------|------------------|---------------|--4----------------|
-------------------|------------------|---------------|-------------------|



-------------------|-------------------|-------------------|
-------------------|-------------------|-------------------|
--3----------------|--------------3----|--1----------------|
-------------------|-------------------|-------------------|



--------------------|-------------------|-------------|-------------------|
--------------------|-------------------|-------------|--0----------------|
----------1----1----|--0----------------|-------------|-------------------|
--------------------|-------------------|-------------|-------------------|



-------------------|-------------------|---------------------|
-------------------|-------------------|---------------------|
--4----------------|--3----------------|--3--------3----3----|
-------------------|-------------------|---------------------|



-------------------|----------------------|-------------------|
-------------------|----------------------|-------------------|
--1----------------|------1--3--1----1----|--0----------------|
-------------------|----------------------|-------------------|



---------------|-----------------|----------------|-------------------|
---------------|--0--------------|----------------|-------------------|
---------------|-----------------|--4-------------|--3----------------|
---------------|-----------------|----------------|-------------------|



----------------------|-------------------|----------------------|
----------------------|-------------------|----------------------|
--3--3------3--3------|--1----------------|--1--1------1--1------|
----------------------|-------------------|----------------------|



-------------------|----------2-----------|-------------------|
-------------------|-------------2--------|--0----------------|
--0----------------|----------------3-----|-------------------|
-------------------|-------------------5--|-------------------|



-------------------|--------------------|--------------|-------------------|
-------------------|--------------------|--------------|-------------------|
--4----------------|--6/-----0----------|--------------|--5----------------|
-------------------|--------------------|--------------|-------------------|



------------------|-------------------|---------------|-------------------|
------------------|-------------------|---------------|-------------------|
------------------|--4----------------|---------------|--5----------------|
------------------|-------------------|---------------|-------------------|



------------------|--------------------|---------------|-------------------|
------------------|--------------------|---------------|-------------------|
------------------|--6/-----0----------|---------------|--5----------------|
------------------|--------------------|---------------|-------------------|



------------------|-------------------|----------------|-------------------|
------------------|-------------------|----------------|-------------------|
------------------|--4----------------|----------------|--5----------------|
------------------|-------------------|----------------|-------------------|



------------------|----------------------------------|
------------------|----------------------------------|
------------------|--6----6--6--6----6----6--6--6----|
------------------|----------------------------------|



----------------------------------|----------------------------------|
----------------------------------|----------------------------------|
--6----6--6--6----6----6--6--6----|--5----5--5--5----5----5--5--5----|
----------------------------------|----------------------------------|



----------------------------------|----------------------------------|
----------------------------------|----------------------------------|
--5----5--5--5----5----5--5--5----|--4----4--4--4----4----4--4--4----|
----------------------------------|----------------------------------|



----------------------------------|----------------------------------|
----------------------------------|----------------------------------|
--4----4--4--4----4----4--4--4----|----------------------------------|
----------------------------------|--0----0--0--0----0----0--0--0----|



----------------------------------|----------------------------------|
----------------------------------|----------------------------------|
----------------------------------|--6----6--6--6----6----6--6--6----|
--0----0--0--0----0----0--0--0----|----------------------------------|



----------------------------------|----------------------------------|
----------------------------------|----------------------------------|
--6----6--6--6----6----6--6--6----|--5----5--5--5----5----5--5--5----|
----------------------------------|----------------------------------|



----------------------------------|----------------------------------|
----------------------------------|----------------------------------|
--5----5--5--5----5----5--5--5----|--4----4--4--4----4----4--4--4----|
----------------------------------|----------------------------------|



----------------------------------|-------------------|------------------|
----------------------------------|-------------------|------------------|
--4----4--4--4----4----4--4--4----|-------------------|------------------|
----------------------------------|--5----------------|------------------|



-------------------|------------------|---------------------|
-------------------|------------------|---------------------|
-------------------|------------------|---------------------|
--5----------------|------------------|--5------5------5----|



---------------------|---------------------|---------------------|
---------------------|---------------------|---------------------|
---------------------|---------------------|---------------------|
--5------5------5----|--7------7------7----|--7------7------7----|



---------------------|---------------------|---------------------|
---------------------|---------------------|---------------------|
---------------------|---------------------|---------------------|
--0------0------0----|--0------0------0----|--5------5------5----|



---------------------|---------------------|---------------------|
---------------------|---------------------|---------------------|
---------------------|---------------------|---------------------|
--5------5------5----|--5------5------5----|--5------5------5----|



---------------------|---------------------|---------------------|
---------------------|---------------------|---------------------|
---------------------|---------------------|---------------------|
--7------7------7----|--7------7------7----|--0------0------0----|



---------------------|---------------------|---------------------|
---------------------|---------------------|---------------------|
---------------------|---------------------|---------------------|
--0------0------0----|--5------5------5----|--5------5------5----|



----------------------|-----------------------|----------------------|
----------------------|-----------------------|----------------------|
----------------------|-----------------------|----------------------|
--5----5----5----5----|--7----7----8----10----|--8----7----7----7----|



----------------------|----------------------|-----------------------|
----------------------|----------------------|-----------------------|
----------------------|----------------------|-----------------------|
--7----7----7----7/---|--0----0----0----0----|--8----8----7----8--7--|



----------------------|------------------------|----------------------|
----------------------|------------------------|----------------------|
--5----------3--1--3--|--1--0--1--0------------|----------------------|
----------------------|--------------5----5----|--5----5----5----5----|



-----------------------|----------------------|----------------------|
-----------------------|----------------------|----------------------|
-----------------------|----------------------|----------------------|
--7----7----8----10----|--8----7----7----7----|--7----7----7----7/---|



----------------------|-----------------------|----------------------|
----------------------|-----------------------|----------------------|
----------------------|-----------------------|--5----------3--1--3--|
--0----0----0----0----|--8----8----7----8--7--|----------------------|



------------------------|-------------------|----------------------|
------------------------|-------------------|----------------------|
--1--0--1--0------------|-------------------|----------------------|
--------------5----5----|--5----------------|--7--------8----10----|



--------------------|--------------------|-------------------|
--------------------|--------------------|-------------------|
--------------------|--------------------|-------------------|
--8----7------------|--------------7/-0--|--0----------------|



----------------------|----------------------|-----------------------|
----------------------|----------------------|-----------------------|
----------------------|--5----------3--1--3--|--1--0--1--0-----------|
--8--------7----8--7--|----------------------|--------------5--------|



-------------------|----------------------|--------------------|
-------------------|----------------------|--------------------|
-------------------|----------------------|--------------------|
--5----------------|--7--------8----10----|--8----7------------|



--------------------|-------------------|----------------------|
--------------------|-------------------|----------------------|
--------------------|-------------------|----------------------|
--------------7/-0--|--0----------------|--8--------7----8--7--|



----------------------|-----------------------|---------------------|
----------------------|-----------------------|---------------------|
--5----------3--1--3--|--1--0--1--0-----------|---------------------|
----------------------|--------------5--------|--5------5------5----|



---------------------|---------------------|---------------------|
---------------------|---------------------|---------------------|
---------------------|---------------------|---------------------|
--5------5------5----|--7------7------7----|--7------7------7----|



---------------------|---------------------|---------------------|
---------------------|---------------------|---------------------|
---------------------|---------------------|---------------------|
--0------0------0----|--0------0------0----|--5------5------5----|



---------------------|---------------------|---------------------|
---------------------|---------------------|---------------------|
---------------------|---------------------|---------------------|
--5------5------5----|--5------5------5----|--5------5------5----|



---------------------|---------------------|---------------------|
---------------------|---------------------|---------------------|
---------------------|---------------------|---------------------|
--7------7------7----|--7------7------7----|--0------0------0----|



---------------------|---------------------|---------------------|
---------------------|---------------------|---------------------|
---------------------|---------------------|---------------------|
--0------0------0----|--5------5------5----|--5------5------5----|



----------------|-------------------|-------------------|---------------|
----------------|-------------------|-------------------|---------------|
--1-------------|--0----------------|--5----------------|---------------|
----------------|-------------------|-------------------|---------------|



----------------|-------------------|-------------------|---------------|
----------------|-------------------|-------------------|---------------|
--6-------------|--5----------------|-------------------|---------------|
----------------|-------------------|--5----------------|---------------|



----------------------|----------------------|----------------------|
----------------------|----------------------|----------------------|
--1----1----1----1----|--0----0----0----0----|--5----5----5----5----|
----------------------|----------------------|----------------------|



----------------------|----------------------|----------------------|
----------------------|----------------------|----------------------|
--5----5----5----5----|--6----6----6----6----|--5----5----5----5----|
----------------------|----------------------|----------------------|



----------------------|----------------------|----------------------|
----------------------|----------------------|----------------------|
----------------------|----------------------|--1----1----1----1----|
--5----5----5----5----|--5----5----5----5----|----------------------|



----------------------|----------------------|----------------------|
----------------------|----------------------|----------------------|
--0----0----0----0----|--5----5----5----5----|--5----5----5----5----|
----------------------|----------------------|----------------------|



----------------------|----------------------|----------------------|
----------------------|----------------------|----------------------|
--6----6----6----6----|--5----5----5----5----|----------------------|
----------------------|----------------------|--5----5----5----5----|



----------------------|----------------------|--------------------|
----------------------|----------------------|--------------------|
----------------------|--5---------5----6----|------5----6--------|
--5----5----5----5----|-------5--------------|--------------------|



----------------------|--------------------|----------------------|
----------------------|--------------------|----------------------|
--5---------5----6----|------5----6--------|--3---------3----4----|
-------5--------------|--------------------|-------4--------------|



--------------------|----------------------|--------------------|
--------------------|----------------------|--------------------|
------3----4--------|--3---------3----4----|------3----4--------|
--------------------|-------4--------------|--------------------|



----------------------|--------------------|----------------------|
----------------------|--------------------|----------------------|
--5---------5----6----|------5----6--------|--5---------5----6----|
-------5--------------|--------------------|-------5--------------|



--------------------|----------------------|--------------------|
--------------------|----------------------|--------------------|
------5----6--------|--3---------3----4----|------3----4--------|
--------------------|-------4--------------|--------------------|



----------------------|--------------------|-------------------|
----------------------|--------------------|-------------------|
--3---------3----4----|------3----4--------|-------------------|
-------4--------------|--------------------|--5----------------|



----------------------|--------------------|--------------------|
----------------------|--------------------|--------------------|
----------------------|--------------------|--------------------|
--7--------8----10----|--8----7------------|--------------7/-0--|



-------------------|----------------------|----------------------|
-------------------|----------------------|----------------------|
-------------------|----------------------|--5----------3--1--3--|
--0----------------|--8--------7----8--7--|----------------------|



-----------------------|-------------------|----------------------|
-----------------------|-------------------|----------------------|
--1--0--1--0-----------|-------------------|----------------------|
--------------5--------|--5----------------|--7--------8----10----|



--------------------|-------------------|-------------------|
--------------------|-------------------|-------------------|
--------------------|-------------------|-------------------|
--8----7------------|-------------7/-0--|--0----------------|



----------------------|----------------------|-----------------------|
----------------------|----------------------|-----------------------|
----------------------|--5----------3--1--3--|--1--0--1--0-----------|
--8--------7----8--7--|----------------------|--------------5--------|



----------------|-----------------|-------------------|------------------|
----------------|-----------------|-------------------|------------------|
----------------|-----------------|-------------------|------------------|
--5-------------|-----------------|--7----------------|------------------|



-----------------|------------------|-------------------|---------------|
-----------------|------------------|-------------------|---------------|
-----------------|------------------|-------------------|---------------|
--0--------------|------------------|--5----------------|---------------|



---------------------|---------------------|---------------------|
---------------------|---------------------|---------------------|
---------------------|---------------------|---------------------|
--5------5------5----|--5------5------5----|--7------7------7----|



---------------------|---------------------|---------------------|
---------------------|---------------------|---------------------|
---------------------|---------------------|---------------------|
--7------7------7----|--0------0------0----|--0------0------0----|



---------------------|---------------------|-------------------|
---------------------|---------------------|-------------------|
---------------------|---------------------|-------------------|
--5------5------5----|--5------5------5----|--5----------------|



----------------|------------------|------------------|-------------------|
----------------|------------------|------------------|-------------------|
----------------|------------------|------------------|-------------------|
----------------|------------------|------------------|--5----------------|


--------------------------------|--------------------------------|
--------------------------------|-----------------0----0---------|
--------------------------------|------------1--------------1----|
--5----5----5----5----5----5----|--5----5------------------------|



--------------------------------|--------------------------------|
--------------------------------|--------------------------------|
--------------------------------|------------3----1----1----0----|
--1----1----1----1----1----1----|--3----3------------------------|



--------------------------------|--------------------------------|
--------------------------------|-----------------0----0---------|
--------------------------------|------------1--------------1----|
--5----5----5----5----5----5----|--5----5------------------------|



--------------------------------|--------------------------------|
--------------------------------|--------------------------------|
--------------------------------|------------3----1----1----0----|
--1----1----1----1----1----1----|--3----3------------------------|



----------------------|----------------------|----------------------|
----------------------|----------------------|----------------------|
----------------------|----------------------|----------------------|
--5----5----5----5----|--5----5----5----5----|--1----1----1----1----|



----------------------|----------------------|----------------------|
----------------------|----------------------|----------------------|
-------3----1----3----|----------------------|----------------------|
--3-------------------|--5----5----5----5----|--5----5----5----5----|



----------------------|----------------------|-----------------------------|
----------------------|----------------------|-----------------------------|
----------------------|-------3----1----3----|-----------------------------|
--1----1----1----1----|--3-------------------|--5----5----5----5----5----5-|



--------------------------------|--------------------------------|
-----------------0----0---------|--------------------------------|
------------1--------------1----|--------------------------------|
--5----5------------------------|--1----1----1----1----1----1----|



--------------------------------|--------------------------------|
--------------------------------|--------------------------------|
------------3----1----1----0----|--------------------------------|
--3----3------------------------|--5----5----5----5----5----5----|



--------------------------------|--------------------------------|
-----------------0----0---------|--------------------------------|
------------1--------------1----|--------------------------------|
--5----5------------------------|--1----1----1----1----1----1----|



--------------------------------|------------------------|
--------------------------------|------------------------|
------------3----1----1----0----|------------------------|
--3----3------------------------|--5--5--5--5------------|





Comments


Popular Cradle Of Filth tabs & chords
Tortured Soul Asylum Bass Tabs
Beneath The Howling Stars 1 Tabs
Filthy Little Secrets Tabs
For Your Vulgar Delectation Tabs
Hallowed Be Thy Name 2 Tabs
Hallowed Be Thy Name 4 Tabs
Her Ghost In The Fog 5 Tabs
Mistress From The Sucking Pit Tabs
Nymphetamine 11 Tabs
Nymphetamine 9 Tabs


Song lyrics



↑ Back to top | Tablatures and chords are parodies/interpretations of the original songs. You may use it for private study, scholarship, research or language learning purposes only
© 2014 AZChords.com Contact us | Privacy policy | DMCA | Add/correct tabs | Request tabs | Top 50 tabs