>
 >
Beast Of Extermination

Beast Of Extermination Guitar Tabs

Cradle Of Filth - Beast Of Extermination chords, tabs, tablatures, lyrics

Guitar lessons | Add/correct | Request | Top 50 tabs Artists:  A B C D E F G H I J K L M N O P Q R S T U V W X Y Z 0-9

Beast Of Extermination Guitar Tabs – Cradle Of Filth

CD, Sheet music, Poster

Do you like Beast Of Extermination? Share with your friends now
Tabs
dgcfad

                  Riff A both gtrs  0:11-0:42,1:26-1:46,2:30-2:51,4:17-4:39--------------------|
-----------------]-----------------------------------------------------------------------------|
-----------------]------all ///'d--------------------------------------------------------------|
-----------------]-----------------------------------------------------------------------------|
-------------7--9]-10--12-13--12-13-12--9--------------10--12-13--12-13-12--9--7---------------|
-10--9--10---5--7]-8---10-11--10-11-10--7--8--7--4--3--8---10-11--10-11-10--7--5--10-9-10--12--|
-8---7---8---5--7]-------------------------6--5--2--1------------------------------8-7--8--10--|
4:39
Riff B both gtrs  0:43-1:05,1:47-2:08,4:39------------------|
------------------------------------------------------------|
------------------------------------------------------------|
0's P.M'd---------------------------*slide down to 1--------|
----------4-4-----------------------------------------------|
----------2-2----------333----------5-5---6-6---5-5---------|
-00000000-2-2-00000000-111-00000000-3-3\*-4-4\*-3-3\*-------|

Riff C both gtrs   1:04-1:26,2:08-2:29,3:54-4:17----------------------------------------|
-----------------------------------------------------after 1st time--]after 2nd time----|
--------------------------------------------------]-----------------]-------------------|
--------------------------------------------------]---pm-5-pm----pm-7-]-----------------|
----------7\8-7\8----------7\8-7\6---------7\8-7\8]-3-33---33--5-55--]------------------|
------6-7-5\6-5\6------6-7-5\6-7\4-----6-7-5\6-5\6]------------------]--all PM'd--------|
-0-0--4-5-5\6-5\6-0-0--4-5-5\6-5\4-0-0-4-5-5\6-5\6]------------------]--111-111-111-111-|

Riff D both gtrs 2:51-3:12
-------------------------------------------------------------------------------|
-------------------------------------------------------------------------------|
--all ///'d--------------------------------------------------------------------|
-------------------------------------------------------------------------------|
-------------------------------------------------------------------5-6--9-8----|
-0--0-1-3---1-3-4---3-4--6-4^6^4--3--4-6---0--0-1-3---1-3-4---3-4--3-4--7-6----|

Riff E gt.1 rythymn 3:12-3:3;32 3 and 3/4th's times ]
----------------------------------------------------]------------|
----------------------------------------------------]------------|
-2------3--------5---------5------------------------]------------|
-0------3--------3---------5------------------------]------------|
---------------------------7------------------------]-8888-------|
----------------------------------------------------]-6666-------|

Riff E gt.2
---------------------------------------------------------------------------------------------|
----10--8----------------------------------------10-8----------------------------------------|
-7--------10--9^10-9--7-9-10--9-10-12-10^12^10-7-----10-9^10-10--9-10-12--10-12-14-12^14^12--|
---------------------------------------------------------------------------------------------|
---------------------------------------------------------------------------------------------|
---------------------------------------------------------------------------------------------|
Riff E gt.2 continued
------------------------------------------------------------------------------------------------|
---8^10^8-------------------------------------8^10^8------------~~------------------------------|
----------10-9-9-7----7-10-9-10-12-10^12^10----------10-9-10-12-12--10--12--14--12-14-15-14-15--|
-7-----------------10-----------------------7---------------------------------------------------|
------------------------------------------------------------------------------------------------|
------------------------------------------------------------------------------------------------|
Riff F both gtrs 3:33-3;44
-------------------------------------------------------------------------------|
----all///'d-------------------------------------------------------------------|
-------------------------------------------------------------------------------|
------7--5-------------------------------------7--5----------------------7--5--|
--5----------8--7--8-----7-8-7--5---[5]----5---------8--7--8----7-8-7--8-------|
----------------------------------8--------------------------------------------|

Riff G gt.1 3:44-3:55
-----------------------------------------------------------------------------------------|
-------all///'d--------------------------------------------------------------------------|
-----------------------------------------------------------------------------------------|
--3----7---5--7--8---7-----8---10--8---7--8---3----7---5--7--8---7-----8-----------------|
--5----8---7--8--10--8-----10--12--10--8--10--5----8---7--8--10--8-----10-10101010--7777-|
--------------------------------------------------------------------------8-8-8-8---5555-|
Riff G gt.2
----------------------------------------------------------------------------------------|
----------------------------------------------------------------------------------------|
-----all///'d---------------------------------------------------------------------------|
---------------------------7------------------------------------------------------------|
-------8--7--8--10--8---10---10--8--10-----8--7--8--10--8----10---10101010---7777-------|
---10-----------------------------------10-------------------------8-8-8-8---5555-------|





Comments


Popular Cradle Of Filth tabs & chords
Babalon A.D. (So Glad For The Madness) Bass Tabs
Sodomy & Lust Bass Tabs
13 Auttums And A Widow Tabs
An Enemy Led The Tempest Tabs
Mannequin Tabs
Nymphetamine Tabs
Scorched Earth Erotica 2 Tabs
Tearing The Veil From Grace Tabs
The Raping Of Faith Tabs
Under Huntress Moon Tabs


Song lyrics



↑ Back to top | Tablatures and chords are parodies/interpretations of the original songs. You may use it for private study, scholarship, research or language learning purposes only
© 2014 AZChords.com Contact us | Privacy policy | DMCA | Add/correct tabs | Request tabs | Top 50 tabs