» » »

Angel Of Death Tabs (ver.1)

Artists:  A B C D E F G H I J K L M N O P Q R S T U V W X Y Z # 

Angel Of Death Tabs (ver.1)

Cradle Of Filth
Rating:
5/5 (2 votes)

Hard to play? Try these video lessons and learn fast.
                -----------------------------------------------------------------------------
-----------------------------------------------------------------------------

Tuning:Drop D Tuning

e|----------------------------------------|
B|----------------------------------------|
G|----------------------------------------|
D|---8--5>---7--5>---7--5>---3--0--0--0---| x4
A|---8--5>---7--5>---7--5>---3--0--0--0---|
D|---8--5>---7--5>---7--5>---3--0--0--0---|
        x       x       x    
e|-----------------------------------------------------|
B|-----------------------------------------------------|
G|-----------------------------------------------------|
D|---10--7-7-7---10--7-7-7---10--7-7-7---7-5-7-5-7-5---|
A|---10--7-7-7---10--7-7-7---10--7-7-7---7-5-7-5-7-5---|
D|---10--7-7-7---10--7-7-7---10--7-7-7---7-5-7-5-7-5---|

e|----------------------------------------|
B|----------------------------------------|
G|----------------------------------------|
D|---8--5>---7--5>---7--5>---3--0--0--0---| 
A|---8--5>---7--5>---7--5>---3--0--0--0---|
D|---8--5>---7--5>---7--5>---3--0--0--0---|
        x       x       x    

Keyboard Riff

e|-------------------------|
B|-------------------------|
G|-------------------------|
D|---5>--7>--8>--9>--10>---| x2
A|---5>--7>--8>--9>--10>---|
D|---5>--7>--8>--9>--10>---|

e|---------------------------------|
B|---------------------------------|
G|---------------------------------|
D|---5--5--5---5-5-5--5--5---12\---|
A|---5--5--5---5-5-5--5--5---12\---|
D|---5--5--5---5-5-5--5--5---12\---|

e|----------------------------------------|
B|----------------------------------------|
G|----------------------------------------|
D|---8--5>---7--5>---7--5>---3--0--0--0---| x4
A|---8--5>---7--5>---7--5>---3--0--0--0---|
D|---8--5>---7--5>---7--5>---3--0--0--0---|
        x       x       x    
e|-----------------------------------------------------|
B|-----------------------------------------------------|
G|-----------------------------------------------------|
D|---10--7-7-7---10--7-7-7---10--7-7-7---7-5-7-5-7-5---|
A|---10--7-7-7---10--7-7-7---10--7-7-7---7-5-7-5-7-5---|
D|---10--7-7-7---10--7-7-7---10--7-7-7---7-5-7-5-7-5---|

e|----------------------------------------|
B|----------------------------------------|
G|----------------------------------------|
D|---8--5>---7--5>---7--5>---3--0--0--0---| 
A|---8--5>---7--5>---7--5>---3--0--0--0---|
D|---8--5>---7--5>---7--5>---3--0--0--0---|
        x       x       x    

e|-------------------------|
B|-------------------------|
G|-------------------------|
D|---5>--7>--8>--9>--10>---| x2
A|---5>--7>--8>--9>--10>---|
D|---5>--7>--8>--9>--10>---|

e|---------------------------|
B|---------------------------|
G|---------------------------|
D|---5--5--5---5-5-5--5--5---|
A|---5--5--5---5-5-5--5--5---|
D|---5--5--5---5-5-5--5--5---|

e|-----------------------------------|
B|-----------------------------------|
G|-----------------------------------|
D|---2--3----3--5----11--12----12\---|
A|---2--3----3--5----11--12----12\---|
D|---2--3----3--5----11--12----12\---|

e|---------------------------------------------|
B|---------------------------------------------|
G|---------------------------------------------|
D|---8--5>----7-5-7-5-5-6-7---5>--12--10--10---|
A|---8--5>----7-5-7-5-5-6-7---5>--12--10--10---|
D|---8--5>----7-5-7-5-5-6-7---5>--12--10--10---|

e|-------------------------------------------|
B|-------------------------------------------|
G|-------------------------------------------|
D|-------------------------------------------| x4
A|-------------------------------------------|
D|---5--5---10p8p5--10p8p5--10p8p5--10p8p5---|

e|----------|
B|----------|
G|----------|
D|---7--7---|
A|---7--7---|
D|---7--7---|

e|-------------------------------------------|
B|-------------------------------------------|
G|-------------------------------------------|
D|-------------------------------------------| x2
A|-------------------------------------------|
D|---5--5---10p8p5--10p8p5--10p8p5--10p8p5---|


| >  repeatedly hit note
| \  slide down
| p  pull-off
| x  Mute note
=============================================================================
            
Hard to play? Try these video lessons and learn fast. | Correct




comments powered by Disqus
↑ Back to top | Tablatures and chords are parodies/interpretations of the original songs. You may use it for private study, scholarship, research or language learning purposes only