>
 >
A Crescendo Of Passion Bleeding

A Crescendo Of Passion Bleeding Guitar Tabs

Cradle Of Filth - A Crescendo Of Passion Bleeding chords, tabs, tablatures, lyrics

Guitar lessons | Add/correct | Request | Top 50 tabs Artists:  A B C D E F G H I J K L M N O P Q R S T U V W X Y Z 0-9

A Crescendo Of Passion Bleeding Guitar Tabs – Cradle Of Filth

CD, Sheet music, Poster

Do you like A Crescendo Of Passion Bleeding? Share with your friends now
Tabs
CRADLE OF FILTH
'A Crescendo Of Passion Bleeding'


Riff 1(tremolo pick all):"Spells lay daggers before me..."
------------------------------------
------------------------------------
------------------------------------
--9---10\9-10/12--10---10/12-10/12--
--7----8\7--8/10---8----8/10--8/10--
------------------------------------

Fill 1:
------------------------------------
------------------------------------
------------------------------------
--2---------------------------------
--2---------------------------------
--0---------------------------------

Riff 2(*Natural Harmonics, listen to the song):
------------------------------------
------------------------------------
------------------------------------
------------------------------------
-/8---/8---/8-----------------------
-/6-0-/6-0-/6---(*3/7\3)------------

Fill 2(Listen to the song for the rhythm):
------------------------------------
------------------------------------
------------------------------------
------------------------------------
--2------2--------------------------
--0------0--------------------------

Riff 3a(tremolo pick all):
------------------------------------
------------------------------------
------------------------------------
------------------------------------
------------------------------------
--0---3/7---3\1---3/7/8\7\5---------

Riff 3b(tremolo pick all):
------------------------------------
------------------------------------
------------------------------------
------------------------------------
--0---3/7---3\1---3/7/8\7\5---------
------------------------------------

Fill 3:
------------------------------------
------------------------------------
------------------------------------
------------------------------------
--8---9\8\5/7--3--------------------
--6---7\6\3/5--1--------------------

Riff 4(tremolo pick all): "A Black Age of Fire..."
-----------------------------------------------------
---------------14----------------------113-----------
------13-14-13----13-14-13----12-13-12-----12-13-12--
--11-----------------------10------------------------
-----------------------------------------------------
-----------------------------------------------------

Riff 5(Listen to the song for how to play this one):
-----------------------------------------------------
-----------------------------------------------------
-----------------------------------------------------
--6--4--2-----2--6--8--9-11--14--13------------------
--4--2--0--6--0--4--6--7--9--12--11------------------
-----------4-----------------------------------------

Riff 6:"The blood is the life"
------------------------------------------
------------------------------------------
------------------------------------------
------------------------------------------
--2--2-2-3-3-2--5\4\3\2--3-3----5---3-----
--0--0-0-1-1-0--3\2\1\0--1-1--0-3-0-1-0---

Fill 4(tremolo pick):"Chaos my steed in the thick clinging dust.."
------------------------------------
------------------------------------
------------------------------------
------------------------------------
--8---------------------------------
------------------------------------

Fill 5:
------------------------------------
------------------------------------
------------------------------------
--9-------------------------8-------
--7-------------------------6-------
--7-------------------------6-------

Riff 7a:"The incessant pull of death surrounds me..."
-------------------------
-------------------------
-------------------------
-------------------------
--7--7-7-7--7-7-8-7-6-7--
-------------------------

Riff 7b:
-------------------------
-------------------------
-------------------------
-------------------------
--6--6-6-6--6-6-7-6-5-6--
-------------------------

Clean tone "solo" at the end(All the notes(I think)have been tabbed, 
you'll have to listen to the song for the order to play them in.):
---------------------------------------------------------------------
--------------------------------------------8-10-8-6-8-6-------------
---------------------------------------99----------------9---7-5-4-5-
-------9-10-9-7----7-------9-10-9-/12--------------------------------
--7-------------10----7----------------------------------------------
---------------------------------------------------------------------

Here's how the song goes:

Riff 1 x10
Fill 1
Riff 2 x4
Fill 2
Riff 2 x4
Fill 2 x2
Riff 3a x2
Riff 3b x2
Riff 3a x2
Fill 3
Riff 4 x4
Riff 5 x3
Riff 3a x2
Riff 3b x2
Riff 3a x2
Fill 3
Riff 6 x4
Fill 4 x4
Riff 6 x4
Fill 4 x4
Fill 5
Riff 7a x2
Riff 7b x2
Riff 7a x2
Riff 7b x2
Clean "Solo"
Fill 3
Riff 1 x4





Comments


Popular Cradle Of Filth tabs & chords
A Gothic Romance Bass Tabs
Black Metal 2 Bass Tabs
Born In A Burial Gown 1 Bass Tabs
Lustmord And Wargasm Bass Tabs
Malice Through The Looking Glass Bass Tabs
Absinthe With Faust Tabs
Bathory Aria Tabs
Beyond The Eleventh Hour Tabs
Gilded Cunt Tabs
Scorched Earth Erotica 1 Tabs


Song lyrics



↑ Back to top | Tablatures and chords are parodies/interpretations of the original songs. You may use it for private study, scholarship, research or language learning purposes only
© 2014 AZChords.com Contact us | Privacy policy | DMCA | Add/correct tabs | Request tabs | Top 50 tabs