>
 >
13 Auttums And A Widow

13 Auttums And A Widow Guitar Tabs

Cradle Of Filth - 13 Auttums And A Widow chords, tabs, tablatures, lyrics

Guitar lessons | Add/correct | Request | Top 50 tabs Artists:  A B C D E F G H I J K L M N O P Q R S T U V W X Y Z 0-9

13 Auttums And A Widow Guitar Tabs – Cradle Of Filth

CD, Sheet music, Poster

Do you like 13 Auttums And A Widow? Share with your friends now
Tabs
Band- Cradle Of Filth
Song- 13 Auttums And A Widow

Notation Legend
h       hammer-on
p       pull-off
PM |--| Palm Mute
/       slide up
\       slide down

Tune both guitars down one whole step: DGCFAd

INTRO RIFF AT ( :  )                               2x
d|---------------------------------------------------|
A|---------------------------------------------------|
F|-4-4-4-4-4-4-4-4-4-4-4-4-4-4-4-4-4-4-4-4-4-4-4-----|
C|-4-4-4-4-4-4-4-4-4-4-4-4-4-4-4-4-4-4-4-4-4-4-4-5-3-|
G|-2-2-2-2-2-2-2-2-2-2-2-2-2-2-2-2-2-2-2-2-2-2-2-5-3-|
D|-----------------------------------------------3-1-|

Play this after the intro-riff is played twice.
d|-------------------------------------|
A|-------------------------------------|
F|-4-4-4-4-4-4-4-4-4-4-4-4-4-4-4-4-4-4-|
C|-4-4-4-4-4-4-4-4-4-4-4-4-4-4-4-4-4-4-|
G|-2-2-2-2-2-2-2-2-2-2-2-2-2-2-2-2-2-2-|
D|-------------------------------------|

RIFF 1
d|-------------------------------------------------|
A|-------------------------------------------------|
F|-------------------------------------------------|
C|-4----------3-----------4-----------3------------|
G|-4----------3-----------4-----------3------------|
D|-2----------1-----------2-----------1------------|
                                                 4x
  -------------------------------------------------|
  -------------------------------------------------|
  -------------------------------------------------|
  -8-8-8-8-8-8-8-8-8-8-8-8-8-8-8-8-8-8-8-8-8-8-8-8-|
  -8-8-8-8-8-8-8-8-8-8-8-8-8-8-8-8-8-8-8-8-8-8-8-8-|
  -6-6-6-6-6-6-6-6-6-6-6-6-6-6-6-6-6-6-6-6-6-6-6-6-|

d|-------------------------------------------------|
A|-------------------------------------------------|
F|-------------------------------------------------|
C|-3-3-3-3-3-3-3-3-3-3-3-3-3-3-3-3-3-3-3-3-3-3-3-3-|
G|-3-3-3-3-3-3-3-3-3-3-3-3-3-3-3-3-3-3-3-3-3-3-3-3-|
D|-1-1-1-1-1-1-1-1-1-1-1-1-1-1-1-1-1-1-1-1-1-1-1-1-|
                                                 2x
  -------------------------------------------------|
  -------------------------------------------------|
  -4-4-4-4-4-4-4-4-4-4-4-4-4-4-4-4-4-4-4-4-4-4-4-4-|
  -4-4-4-4-4-4-4-4-4-4-4-4-4-4-4-4-4-4-4-4-4-4-4-4-|
  -2-2-2-2-2-2-2-2-2-2-2-2-2-2-2-2-2-2-2-2-2-2-2-2-|
  -------------------------------------------------|

d|-------------------------------------------------|
A|-------------------------------------------------|
F|-------------------------------------------------|
C|-3-----------------------------------------------|
G|-3-----------------------------------------------|
D|-1-----------------------------------------------|
                                                 2x
  -------------------------------------------------|
  -------------------------------------------------|
  -4-4-4-4-4-4-4-4-4-4-4-4-4-4-4-4-4-4-4-4-4-4-4-4-|
  -4-4-4-4-4-4-4-4-4-4-4-4-4-4-4-4-4-4-4-4-4-4-4-4-|
  -2-2-2-2-2-2-2-2-2-2-2-2-2-2-2-2-2-2-2-2-2-2-2-2-|
  -------------------------------------------------|
Then play riff 1 again

SOLO-RIFF 1
d|-------------------------------------------------|
A|-------------------------------------------------|
F|-------------------------------------------------|
C|-5---5---5---7---8---8---8---8---8---5---7---7---|
G|-------------------------------------------------|
D|-------------------------------------------------|
                                                 4x
  -------------------------------------------------|
  -------------------------------------------------|
  -----7---7---7---5---5-------7---7---7---5---5---|
  -5-----------------------5-----------------------|
  -------------------------------------------------|
  -------------------------------------------------|

RIFF 3 (not sure about this)
d|-------------------------------------------------|
A|-------------------------------------------------|
F|-------------------------------------------------|
C|-------------------------------------------------|
G|-5-5-5-5-5-5-5-5-3-3-1-1-------------------------|
D|-------------------------5-5-5-5-5-5-5-5-5-5-5-5-|

  -------------------------------------------------|
  -------------------------------------------------|
  -------------------------------------------------|
  -------------------------------------------------|
  -3-3-3-3-3-3-3-3-1-1-0-0-------------------------|
  -------------------------3-3-3-3-3-3-3-3-3-3-3-3-|

  -------------------------------------------------|
  -------------------------------------------------|
  -------------------------------------------------|
  -7---7---7---7---8---7---7---7---7---7---8---7---|
  -7---7---7---7---8---7---7---7---7---7---8---7---|
  -5---5---5---5---6---5---5---5---5---5---6---5---|
                                                 4x
  -------------------------------------------------|
  -------------------------------------------------|
  -------------------------5---5---5---5---5---5---|
  -8---8---8---7---7---7---5---5---5---5---5---5---|
  -8---8---8---7---7---7---3---3---3---3---3---3---|
  -6---6---6---5---5---5---------------------------|

SOLO-RIFF 2
d|-------------------------------------------------|
A|-------------------------------------------------|
F|-10---9-------10-9-----10-9-10---9-10-9---10-9---|
C|----------7--------7---------------------------7-|
G|-------------------------------------------------|
D|-------------------------------------------------|
                                           3x
  -------------------------------------------|
  -------------------------------------------|
  -9-7-9---7-9-7--9-7-----10-9-10---10---9---|
  --------------------7----------------------|
  -------------------------------------------|
  -------------------------------------------|
Play Solo-Riff 1
     Riff 3
     Solo-Riff2

RIFF 4
d|--------------------------------------------|
A|--------------------------------------------|
F|-7---7-7-7-7---7-7-7------------------------|
C|-7---7-7-7-7---7-7-7-7---7-7-7-7---7-7-7-5--|
G|-5---5-5-5-5---5-5-5-7---7-7-7-7---7-7-7-5--|
D|---------------------5---5-5-5-5---5-5-5-3--|
       PM---|   |-----|   |-----|   |---------|
                                                 4x
  ---------------------------------------------------|
  ---------------------------------------------------|
  -------------------------------5-------------------|
  -5-5-5-5---5-5-5-5-8---8-8-8-8-5-------------------|
  -5-5-5-5---5-5-5-5-8---8-8-8-8-3-------------------|
  -3-3-3-3---3-3-3-3-6---6-6-6-6---------------------|
  |-----|   |-------|   |----------------------------|

RIFF 5 (I really don't know how many times this is played)
d|-----------------------------------------|
A|-----------------------------------------|
F|-----------------------------------------|
C|-----------------------------------------|
G|-----------------------------------------|
D|-0-2p0-0-3p0---0-2p0-0-3p0---0-2p0-0-3p0-|
Play riff 4
     solo-riff 2

RIFF 6
d|---------------------------------|
A|---------------------------------|
F|-3---5---7---5---7---5---3---2---|
C|---------------------------------|
G|---------------------------------|
D|---------------------------------|

d|---------------------|
A|---------------------|
F|---------------------|
C|-5---7---8---5---4---|
G|-5---7---8---5---4---|
D|-3---5---6---3---2---|





Comments


Popular Cradle Of Filth tabs & chords
Death Comes Ripping Bass Tabs
Summer Dying Fast Bass Tabs
Angel Of Death Tabs
Babylon Ad 1 Tabs
Cthulhu Dawn 1 Tabs
Hallowed Be Thy Name Tabs
Saffrons Curse (Intro) Tabs
Summer Dying Fast 1 Tabs
The Promise Of Fever 1 Tabs
Tonight In Flames 2 Tabs


Song lyrics



↑ Back to top | Tablatures and chords are parodies/interpretations of the original songs. You may use it for private study, scholarship, research or language learning purposes only
© 2014 AZChords.com Contact us | Privacy policy | DMCA | Add/correct tabs | Request tabs | Top 50 tabs