>
 >
You Dumb ***

You Dumb *** Guitar Tabs

Crackout - You Dumb *** chords, tabs, tablatures, lyrics

Guitar lessons | Add/correct | Request | Top 50 tabs Artists:  A B C D E F G H I J K L M N O P Q R S T U V W X Y Z 0-9

You Dumb *** Guitar Tabs – Crackout

CD, Sheet music, Poster

Do you like You Dumb ***? Share with your friends now
Tabs
			     Crackout - You dumb ***

Crackout are an amazing band and of all the tab sites that I looked at I could never find this song so I finally decided to do it myself.




: slide to
/: bend note


Intro:
e|---4--4--4-----4---4---4------4--4--4----------------------------|
B|--0--0--0--0-----------------------------------------------------|
G|-------------2---2---2---2-------------------2-------------------|
D|----------------------------4--4--4----------2---2---------------|
A|---------------------------------------------0---2---------------|
E|-------------------------------------------------0---------------|

Intro Con:
e|-----------------------------------------------------------------|
B|-----------------------------------------------------------------|
G|----6>--4>--6------6>--4>--6-------------------------------------|
D|-2--6>--4>--6---2--6>--4>--6-------------------------------------|
A|-2--4>--2>--4---2--4>--2>--4-------------------------------------|
E|-0--------------0------------------------------------------------|

verse: (use an almost clean distortion)
e|-----------------------------------------------------------------|
B|-----------------------------------------------------------------|
G|-1-1--2-2--4-4---2/--0-------------------------------------------|
D|-2-2--2-2--2-2----------2----------------------------------------|
A|-----------------------------------------------------------------|
E|-----------------------------------------------------------------|

repeat intro (cut short with these cords)
e|-----------------------------------------------------------------|
B|-----------------------------------------------------------------|
G|----2--4---------------------------------------------------------|
D|-2--2--4---------------------------------------------------------|
A|-2--0--2---------------------------------------------------------|
E|-0---------------------------------------------------------------|

build up to chorus:
e|-----------------------------------------------------------------|
B|-----------------------------------------------------------------|
G|-----------------------------------------------------------------|
D|-2-2-2-2-2-2--7-7-7-7--4-4-4-4-----------------------------------|
A|-2-2-2-2-2-2--7-7-7-7--4-4-4-4-----------------------------------|
E|-0-0-0-0-0-0--5-5-5-5--2-2-2-2-----------------------------------|
pm..............................

Chorus (2 guitars):
Guitar 1 (play each one loads)
e|---------------------------------------------------------|
B|---------------------------------------------------------|
G|-13----------14---------16-------------------------------|
D|--x-----------x----------x-------------------------------|
A|-11----------12---------14-------------------------------|
E|---------------------------------------------------------|

Guitar 2
e|---------------------------------------------------------|
B|---------------------------------------------------------|
G|---------------------------------------------------------|
D|-2222222222222222-77777777-44444444----------------------|
A|-2222222222222222-77777777-44444444----------------------|
E|-0000000000000000-55555555-22222222----------------------|

Bridge:                you can't work it out...
e|---------------------------------------------------------|
B|---------------------------------------------------------|
G|13-13-11-11--8-------------13-13--14-14--8-----7-7-7-7-7-|
D|-*--*--*--*--*---6-6--6-6---*--*---*--*--*-----7-7-7-7-7-|
A|11-11--9--9--6---6-6--6-6--11-11--12-12--6-----5-5-5-5-5-|  
E|-----------------4-4--4-4--------------------------------|
                     pm   pm                    pm.........

Solo:
e|-----------------------------------------------------------------|
B|-----------------------------------------------------------------|
G|-9-9-9--6-6-6--9-9-9--11-11-11--8-8-8--9-9-9--11-11-11---8-------|
D|-*-*-*--*-*-*--*-*-*--*--*--*---*-*-*--*-*-*--*--*--*----*-------|
A|-7-7-7--4-4-4--7-7-7--9--9--9---6-6-6--7-7-7--9--9--9----6-------|
E|-----------------------------------------------------------------|

e|-----------------------------------------------------------------|
B|-----------------------------------------------------------------|
G|-13-13-13--14-14-14--16-16-16------------------------------------|
D|--*--*--*---*--*--*---*--*--*------------------------------------|
A|-11-11-11--12-12-12--14-14-14--(x2)------------------------------|
E|-----------------------------------------------------------------|

outro:
e|-----------------------------------------------------------------|
B|-----------------------------------------------------------------|
G|----6>--4>--6------6>--4>--6-------------------------------------|
D|-2--6>--4>--6---2--6>--4>--6---8-8------2------------------------|
A|-2--4>--2>--4---2--4>--2>--4---8-8------2------------------------|
E|-0--------------0--------------6-6------0------------------------|
                                       let ring out........





Comments


Popular Crackout tabs & chords
Volume Chords
Breakout Drum Tabs
Barricaded Tabs
Fairytale Nothing Tabs
I Am The One 1 Tabs
Over My Head Tabs
Over My Head 1 Tabs
Volume Tabs
You Dumb Fuck Tabs
You Dumb Fuck 2 Tabs


Song lyrics



↑ Back to top | Tablatures and chords are parodies/interpretations of the original songs. You may use it for private study, scholarship, research or language learning purposes only
© 2014 AZChords.com Contact us | Privacy policy | DMCA | Add/correct tabs | Request tabs | Top 50 tabs