» » »

Crackout, Joey Lost His Mind Bass tabs (ver.1)

Artists:  A B C D E F G H I J K L M N O P Q R S T U V W X Y Z # 

Joey Lost His Mind Bass tabs (ver.1)

Crackout Tabs
Rating:
0/5 (0 votes)
Joey Lost His Mind lessons Tabs too difficult? Try these video lessons and learn fast
                Another cool song by Crackout too play, only one part i couldn't tab out soz,Pls Give it a rating... 

Intro
G------------------------------
D------------------------------
A---------------------------5-4
E-2-2-4p2-2-4p2-4p2-2-2-4p2----

Verse
G-------------------------------------------------------------
D-------------------------------------------------------------
A----------------2-2-2-2-2-2-2-2---------------2-2-2-2-2-2-2-2
E-2-2-2-2-2-2-2-2---------------2-2-2-2-2-2-2-2---------------

G---------------------------------------------------------------
D-4-4-4-4-4-4-4-4-----------------------------------------------
A----------------4-4-4-4-4-4-4-4-2-2-2-2-2-2-2-2-2-2-2-2-2-2-2-2
E---------------------------------------------------------------

Pre-Chorus
G--------------------------------------------------------
D--------------------------------------------------------
A---------------------5-5-4-4---------------------5-5-4-4
E-2-2--2-2--x-x--2-2----------2-2--2-2--x-x--2-2---------

G--------------------------------------------------------
D--------------------------------------------------------
A---------------------5-5-4-4---------------------5-5-4-4
E-2-2--2-2--x-x--2-2----------2-2--2-2--x-x--2-2---------

Not too sure what follows that,its a few notes around the 5th
fret on the D-string try.

Chorus        (x3)    
G-------------------------------
D-------------------------------
A-6-6-6-6-1-1-1-1-2-2-2-2-2-2-2-
E-------------------------------

              (x1)
G---------------------------
D---------------------------
A-6-6-6-6-1-1-1-1-2~-----5-4
E---------------------------

End Riff       (x4)               (x1)
G-------------------------------I------
D-------------------------------I------
A---------------------------5-4-I------
E-2-2-4p2-2-4p2-4p2-2-2-4p2-----I-2~---

Structure...
Intro Riff x 4
Verse x 2
Pre Chorus x 1
Chorus x 1
Intro Riff x 4
Verse x 2
Pre Chorus x 1
Chorus x 1
End Riff x 1

Rob Price - A Generation Devoid Of Inspiration
            
Submit corrections

comments powered by Disqus
↑ Back to top | Crackout Bass for Joey Lost His Mind. Lyrics for acoustic guitar and electric guitar. Tablatures and chords are parodies/interpretations of the original songs. You may use it for private study, scholarship, research or language learning purposes only