>
 >
Barricaded

Barricaded Guitar Tabs

Crackout - Barricaded chords, tabs, tablatures, lyrics

Guitar lessons | Add/correct | Request | Top 50 tabs Artists:  A B C D E F G H I J K L M N O P Q R S T U V W X Y Z 0-9

Barricaded Guitar Tabs – Crackout

CD, Sheet music, Poster

Do you like Barricaded? Share with your friends now
Tabs
Crackout - Barricaded


Intro:

E [-----------------------------------------------------------------]
A [-5---5---5---3---5---5---5---3---5---5---5---3---5---5---5---3---]
D [---5---5---5---5---5---5---5---5---5---5---5---5---5---5---5-----]
G [-----------------------------------------------------------------]
B [-----------------------------------------------------------------]
E [-----------------------------------------------------------------]

E [-----------------------------------------------------------------]
A [-----------------------------------------------------------------]
D [-----------------------------------------------------------------]
G [-----0-------0-------0-------0-------0-------0-------0-------0---] x2
B [---3---3---3---3---3---3---3---3---3---3---3---3---3---3---3---3-]
E [-5-------5-------3-------3-------1-------1-------2-------1-------]


Played w/out distortion 

E [----------------------------------------------]
A [----------------------------------------------]
D [-5-5---5---5---5---5--------------------------]
G [-5-5---5---5---5---5-4-4---4---4---4----4-3-3-]
B [-3-3---3---3---3---3-4-4---4---4---4----4-3-3-]
E [---------------------2-2---2---2---2----2-1-1-]


Played w/heavy distortion:

E [-----------------------------------------------------------------]
A [-----------------------------------------------------------------]
D [-5---5---5---5-5---------------------------------5---5-5---------]
G [-5---5---5---5-5-4---4---4---4-4-3---3---3---3-3-5---5-5-5---5-5-] x4
B [-3---3---3---3-3-4---4---4---4-4-3---3---3---3-3-3---3-5-5---5-5-]
E [-----------------2---2---2---2-2-1---1---1---1-1---------3---3-3-]


2nd guitar - w/heavier dist played over last 2 repeats:

E [----------------------------------------------------------------------]
A [---------------------------------------------------5-----6------8-----]
D [-5---5---5---5-5---11--11--11--11-11--10--10--10---7b9---8b10---10b12-]
G [-5---5---5---5-5---11--11--11--11-11--10--10--10----------------------]
B [-3---3---3---3-3---9---9---9---9--9---8---8---8-----------------------]
E [----------------------------------------------------------------------]

E [--------------------------------------------------------------------]
A [----------------------------------------------------5-----3-----1---]
D [--5---5---5---5-5---11--11--11--11-11--10--10--10---7b9---5b7---3b5-]
G [--5---5---5---5-5---11--11--11--11-11--10--10--10-------------------]
B [--3---3---3---3-3---9---9---9---9--9---8---8---8--------------------]
E [--------------------------------------------------------------------]


Palm muted:

E [-----------------------------------------------------------------]
A [-----------------------------------------------------------------]
D [-5-5-5-----------------------------------------------------5-5-5-]
G [-5-5-5-------5-5-5-3-3-3-------------5-5-5-5-5-5-5-3-3-3---5-5-5-] x2
B [-3-3-3-------5-5-5-3-3-3-------------5-5-5-5-5-5-5-3-3-3---3-3-3-]
E [-------------3-3-3-1-1-1-------------3-3-3-3-3-3-3-1-1-1---------]


B [-3-----> Note sustained over above riff


********************************************************************************

Verse:


Bass:

D [-----------------------------------------------------------------]
G [-----------------------------------------------------------------]
B [-3-3-3-----------------------------------------------------3-3-3-]
E [-------------3-3-3-1-1-1-------------3-3-3-3-3-3-3-1-1-1---------]


********************************************************************************

Bridge:


Played w/clean guitar

E [---------------------------------]
A [---------------------------------]
D [---------------------------------]
G [-----0-------0-------0-------0---] x2
B [---3---3---3---3---3---3---3---3-]
E [-0-------0-------1-------1-------]



E [---------------------------------------------------------------]
A [---------------------------------------------------------------]
D [---------------------------------------------------------------]
G [-2---2---3---3---4---4---3---3---2---2---3---3---4---4---3---3-]
B [---3---3---3---3---3---3---3---3---3---3---3---3---3---3---3---]
E [---------------------------------------------------------------]


********************************************************************************

Chorus: 


E [-----------------]
A [-----------------]
D [-5-5-5-5-5-5-5-5->       <-3-3-3-3-3-3-3-3-]
G [-x-x-x-x-x-x-x-x-> cont. <-x-x-x-x-x-x-x-x-]
B [-3-3-3-3-3-3-3-3->       <-1-1-1-1-1-1-1-1-]
E [-----------------]


E [-----------------------------------------------------------------]
A [---------------------------------------------------8-8-8---8-8-8-]
D [-5---5---5---5-5-----------------------------------8-8-8---8-8-8-]
G [-5---5---5---5-5-3---3---3---3-3-6---6---6---6-6---8-8-8---8-8-8-]
B [-3---3---3---3-3-3---3---3---3-3-6---6---6---6-6---6-6-6---6-6-6-]
E [-----------------1---1---1---1-1-4---4---4---4-4-----------------]


********************************************************************************


Fill 1:


Play before Verse 2:

E [-----------------------------------------------------------]
A [---5---5-----6---6-------3-------3-------3-------5------\1-]
D [-5---5-----5---5-----5-------5-------5-------5-------5-----]
G [-----------------------------------------------------------]
B [-----------------------------------------------------------]
E [-----------------------------------------------------------]

E [---------------------------------------------------------0-]
A [---5---5-----6---6-------3-------3-------3-------5-------5-]
D [-5---5-----5---5-----5-------5-------5-------5-------5-----]
G [-----------------------------------------------------------]
B [-----------------------------------------------------------]
E [-----------------------------------------------------------]


Outro:


D [-9-9-9-9-9-9-9-9->       <-5-5-5-5-5-5-5-5-5-5-5-5-7-5-7-5-]
G [-x-x-x-x-x-x-x-x-> cont. <-x-x-x-x-x-x-x-x-x-x-x-x-x-x-x-x-]
B [-7-7-7-7-7-7-7-7->       <-3-3-3-3-3-3-3-3-3-3-3-3-5-3-5-3-]

D [-9-9-9-9-9-9-9-9->       <-12-12-12-12-14-14-14-14-14-14-14-14-14-12-12--9---5-]
G [-x-x-x-x-x-x-x-x-> cont. <--x--x--x--x--x--x--x--x--x--x--x--x--x--x--x--x---5-]
B [-7-7-7-7-7-7-7-7->       <-10-10-10-10-12-12-12-12-12-12-12-12-12-10-10--7---3-]





Comments


Popular Crackout tabs & chords
Volume Chords
Breakout Drum Tabs
Fairytale Nothing Tabs
I Am The One 1 Tabs
Over My Head Tabs
Over My Head 1 Tabs
Volume Tabs
You Dumb Fuck Tabs
You Dumb Fuck 2 Tabs
Volume Ukulele


Song lyrics



↑ Back to top | Tablatures and chords are parodies/interpretations of the original songs. You may use it for private study, scholarship, research or language learning purposes only
© 2014 AZChords.com Contact us | Privacy policy | DMCA | Add/correct tabs | Request tabs | Top 50 tabs