» » »

Cpm 22, O Mundo Da Voltas Tabs (ver.1)

Artists:  A B C D E F G H I J K L M N O P Q R S T U V W X Y Z # 

O Mundo Da Voltas Tabs (ver.1)

Cpm 22 Tabs
Rating:
0/5 (0 votes)
O Mundo Da Voltas lessons Tabs too difficult? Try these video lessons and learn fast
                Verso 1: 2x
------------------------------------------
------------------------------------------
----12------7-----------------------------
----12------7-----7-----5------7----------
----10------5-----7-----5------7----------
-------------------5------3-----5---------

------------------------------------------
------------------------------------------
----------7-------------------------------
----------7-----7-----5------7------5-----
----------5-----7-----5------7------5-----
----------------5-----3------5------2-----


Ponte
-------------------------------------------
----1------------1-------------------------
----2------------2-------------------------
----2-----4------2----4------7-------------
----------4-----------4------7-------------
----------2-----------2------5-------------
                                           O mundo da voltas

Refrao 2x
------------------------------------------
------------------------------------------
----7---------9---------------------------
----7----7----9----5----------------------
----5----7----7----5----------------------
---------5---------3----------------------


Final de Refrao
--------------------------------------------
--------------------------------------------
----7------5--------------------------------
----7------5------5------7------------------
----5------3------5------7------------------
------------------3------5------------------  Faz Volta
                                    
Ponte volta para o primeiro verso
G-----7------9-----10-----12--------------
D-----x------x------x------x---------------
A-----5------7------9-----10--------------
            
Submit corrections

comments powered by Disqus
↑ Back to top | Cpm 22 Tabs for O Mundo Da Voltas. Lyrics for acoustic guitar and electric guitar. Tablatures and chords are parodies/interpretations of the original songs. You may use it for private study, scholarship, research or language learning purposes only