» » »

Cpm 22, NãO Sei Viver Sem Ter Você Tabs (ver.1)

Artists:  A B C D E F G H I J K L M N O P Q R S T U V W X Y Z # 

NãO Sei Viver Sem Ter Você Tabs (ver.1)

Cpm 22 Tabs
 Rating:
4/5 (4 votes)
NãO Sei Viver Sem Ter Você lessons Tabs too difficult? Try these video lessons and learn fast
1
                Verso 1 
e||--------------------------------------------------------------------------------|
B||--------------------------------------------------------------------------------|
G||--------------------------------------------------------------------------------|
D||-9-9-9-9-9-9-9-9-9-9-9-12-12-12-12-12-12-12-12-12-12-12-7-7-7-7-7-7-7-7-7-7-7-7-|
A||-7-7-7-7-7-7-7-7-7-7-7-10-10-10-10-10-10-10-10-10-10-10-5-5-5-5-5-5-5-5-5-5-5-5-|
E||--------------------------------------------------------------------------------|

e||-----------------------------------------------------------------------------||
B||-----------------------------------------------------------------------------||
G||-----------------------------------------------------------------------------||
D||-5-5-5-5-5-5-5-5-5-5-5------------------------5-5-5-5-5-5--------------------||
A||-3-3-3-3-3-3-3-3-3-3-3-7--7--7--7--7--7--7--7-3-3-3-3-3-3--------------------||
E||-----------------------5--5--5--5--5--5--5--5--------------------------------||
              
Não há mais desculpa               ||
                                   ||
você vai ter que me entender       || 
                                   ||   
quando olhar pra trás              || Verso 1 
                                   ||
procurando e não me ver            ||
                                   ||
chegou a hora de recomeçar         ||
  
e||-----------------------------------||
B||-----------------------------------||
G||-----------------------------------|| verso 2 (guitarra 2, som acústico)
D||-----9-------12---7-----5----------||
A||---7------10----5----3-------------||
E||-----------------------------------||  
  
                                      || 
ter cada coisa em seu lugar           ||  
                                      || 
tentar viver sem recordar jamais      ||    verso 2
                                      ||
e se a saudade me deixar falhar       ||
                                      ||
deixar o tempo tentar te apagar       ||

 
C5/B                C5                   G5                   
te ligar de madrugada sem saber o que dizer
                     D5                   C5/B
esperando ouvir sua voz e você nem me atender
          C5         D5
nem ao menos pra dizer ...
     G5
que não vai voltar 
            D5
não vai tentar me entender
                C5          E5 
que eu não fui nada pra você 
            C5         D5
que eu deveria te deixar em paz
    G5
eu já não sei mais 
           D5
não sei viver sem ter você 
            C5           E5 
hoje eu queria te esquecer
            C5             D5           G5
mas quanto mais eu tento mais eu lembro
           D5             C5 E5  C5 D5        E5
não sei viver sem ter você (2x)

(só o baixo)
E                  G
é difícil de aceitar 
D              C
recomeçar do zero 
                  
levantar e caminhar

                                         ||
perceber que quem se ama                 ||
                                         ||
já não se importa com você               ||
                                         ||(verso 1)
e acordar sozinho ouvindo o som da sua tv||
                                         ||
chegou a hora de recomeçar               ||


E           G            D         C           ||
acreditar, que pode ser, melhor assim          ||
         E           G                         ||
tentar crescer, fingir feliz                   ||
        D                                    C ||  
te deixar para depois a cada dia que eu morrer ||
                        C5/B                   ||
espero que você morra, pois

                     C5                      G5   
se eu ligar de madrugada sem saber o que dizer 
                     D5                     C5/B
esperando ouvir sua voz e você nem me atender
           C5         D5
nem ao menos pra dizer ...
     G5    
que não vai voltar 
            D5              
não vai tentar me esquecer 
                C5          E5
que eu não fui nada pra você 
           C5         D5
que eu deveria te deixar em paz
    G5         
eu já não sei mais
           D5              
não sei viver sem ter você
            C5            E5
hoje eu queria te esquecer 
             C5            D5            G5
mas quanto mais eu tento mais eu lembro
          D5              C5 E5  C5 D5            G5
não sei viver sem ter você (2x)
             D5          C5   D5        C5    
preciso reaprender a viver pra esquecer 
 D5           G5  D5   C5 E5  C5 D5              
pra te esquecer
            
Submit corrections

comments powered by Disqus
↑ Back to top | Cpm 22 Tabs for NãO Sei Viver Sem Ter Você. Lyrics for acoustic guitar and electric guitar. 1 Tablatures and chords are parodies/interpretations of the original songs. You may use it for private study, scholarship, research or language learning purposes only