» » »

Dias Atras Tabs (ver.1)

Artists:  A B C D E F G H I J K L M N O P Q R S T U V W X Y Z # 

Dias Atras Tabs (ver.1)

Cpm 22
Rating:
0/5 (0 votes)

Hard to play? Try these video lessons and learn fast.
                CPM22 - Dias Atrás
Intro
 	8vezes		    |         4vezes	      |		4vezes
E|--------------------------|-------------------------|-------------------------
B|--12-12-12-11-11-00-00-00-|-14-14-14-12-12-00-00-00-|-12-12-12-11-11-00-00-00-
G|--11-11-11-11-11-11-11-11-|-11-11-11-11-11-11-11-11-|-11-11-11-11-11-11-11-11-
D|--------------------------|-------------------------|-------------------------
A|--------------------------|-------------------------|-------------------------
E|--------------------------|-------------------------|-------------------------


riff
|--------------------------------------------
|--------------------------------------------
|-4-4--4--4-4--4--4--4--4-4--4--4-4--4--4--4-	
|-4-4--4--4-4--4--4--4--4-4--4--4-4--4--4--4-
|-2-2--2--2-2--2--2--2--2-2--2--2-2--2--2--2-
|-----------------------4-4--4--4-4--4--4--4-
  p.m     p.m    p.m    p.m     p.m    p.m

Riff
Nunca Mais Espero te encontrar
por tudo que você me fez passar
tantos dias sem entender esperando por você
                  F#  E
que não vai voltar

B        F# 
  Dias atrás
   E
Pensava em você
   F#
não é assim

B            F# 
Mas olho pra trás
    E 
mais penso e sigo em frente
   F#			   riff
pra nunca mais viver assim


riff
Tanto faz o que vai rolar
mas nunca espero voltar lá
Sempre tento me esconder
pra deixar de te ver
                F#    E
acho que é melhor


B        F# 
  Dias atrás
   E
Pensava em você
   F#
não é assim

B            F# 
Mas olho pra trás
    E 
mais penso e sigo em frente
   F#			   
pra nunca mais viver assim

Solo
	2vezes
|-------------------------------|--------------------------------------------
|-------------------------------|--------------------------------------------
|-------------------------------|----------4---4-4-4-6-4-6/8-8-8-8-8-6-4-4-4-
|-4/6-6-6-6-6-4/6-6-6-6-6-6-6-6-|--4/6-6-6---6-------------------------------
|-------------------------------|--------------------------------------------
|-------------------------------|--------------------------------------------

|------------------------------------------------------------------
|-6/7-7-7-7-7-7/9-9-9-9-9-9-9-9-9/11-11-11-11-11-11/12-12-12-12-12-
|------------------------------------------------------------------
|------------------------------------------------------------------
|------------------------------------------------------------------
|------------------------------------------------------------------

|--------------------------------------------------------------------------
|-11-9-11-11-11-11-9-7-7-7-7-5/7-7-7-7-7-7-5-5-5-5-5-5-5-7-7-7-7-7-7-5-5-5-
|--------------------------------------------------------------------------
|--------------------------------------------------------------------------
|--------------------------------------------------------------------------
|--------------------------------------------------------------------------

B        F# 
  Dias atrás
   E
Pensava em você
   F#
não é assim

B            F# 
Mas olho pra trás
    E 
mais penso e sigo em frente
   F#			  B
pra nunca mais viver assim
	  F#
Viver assim
	  E
Viver assim
   F#			   riff
pra nunca mais viver assim

_______________________________________________
            
Hard to play? Try these video lessons and learn fast. | Correct




comments powered by Disqus
↑ Back to top | Tablatures and chords are parodies/interpretations of the original songs. You may use it for private study, scholarship, research or language learning purposes only