» » »

Cpm 22, Desconfio Tabs (ver.1)

Artists:  A B C D E F G H I J K L M N O P Q R S T U V W X Y Z # 

Desconfio Tabs (ver.1)

Cpm 22 Tabs
Rating:
0/5 (0 votes)
Hard to play? Try these video lessons and learn fast.
                Verse:

D / G / Bm / A / G  ---> Twice ( watch the rythm )

Pre-Chorus ( lead guitar ):

A / G / D ---> Three times ( at the last time, stop on G )

Pre-Chorus ( second guitar ):

E||---------------------10-10-10-||
B||-10--|--------8-8-8--10-10-10-||
G||-9---|--------7-7-7-----------||
D||-----|------------------------||
A||-----|------------------------||
E||-----|------------------------||
  play  |
8 times |

Chorus ( lead guitar ):

D / G / Bm / A ---> Four times

Chorus ( second guitar ):

E||-10-10-10-10-10--9--9--9--9-10-10-10-10--9-12-12-12-12-|
B||-10-10-10-10-10-10-10-10-10-10-10-10-10-10-10-10-10-10-|

Riff:

E||--------------------------------||
B||--------------------------------||
G||--------------------------------||
D||-7-7-7-7-7-7-6/7-7--7-7-7-7-6/7-||
A||-5-5-5-4-5-5-4/5-5--5-5-5-5-4/5-||
E||--------------------------------||

Verse:

D / G / Bm / A / G  ---> Twice ( watch the rythm )

Pre-Chorus ( lead guitar ):

A / G / D ---> Three times ( at the last time, stop on G again )

Chorus:

D / G / Bm / A ---> Four times

E||----------------------------------------||
B||----------------------------------------||
G||--------------------------------7-7-7-7-||
D||-7-7-7-7-7-7-6/7-7--7-7-7-7-6/7-7-7-7-7-||
A||-5-5-5-4-5-5-4/5-5--5-5-5-5-4/5-5-5-5-5-||
E||----------------------------------------||

Bridge: E|-G|-D 3 times E|-G|-A

e||------------------------------------|
B||-8-8-7-8-7---7-8-7---7--------------|
G||-----------7-------7---7------------|
D||------------------------------------|
A||------------------------------------|
E||------------------------------------|

e||---------------------------------------|
B||-8-8-7-8-7-----------------------------|
G||----------7-9-7----7---7---7---7-9-7---|
D||-----------------7---7---7---7---------|
A||---------------------------------------|
E||---------------------------------------|

e||------------------------------------|
B||-8-8-7-8-7---7-8-7---7--------------|
G||-----------7-------7---7------------|
D||------------------------------------|
A||------------------------------------|
E||------------------------------------|

e||------------------------------------------------------------------|
B||-8-8-7-8-7---7-10-8-7-8-7------1010-88-77-88-1010-88-7/8-7--------|
G||-----------7--------------7--------------------------------7~-----|
D||------------------------------------------------------------------|
A||------------------------------------------------------------------|
E||------------------------------------------------------------------|

Chorus:

D / G / Bm / A ---> Six times

Final: Bm / A / D ---> Twice

Final riff:

E||--------10----10---------10--------||
B||-----------10----10------------10~-||
G||-----------------------------------||
D||-----------------------------------||
A||-9-7----------------9-7------------||
E||-7-5----------------7-5------------||
            

comments powered by Disqus
↑ Back to top | Cpm 22 Tabs for Desconfio. Lyrics for acoustic guitar and electric guitar. Tablatures and chords are parodies/interpretations of the original songs. You may use it for private study, scholarship, research or language learning purposes only