» » »

Cpm 22, Alem De Nos Tabs (ver.1)

Artists:  A B C D E F G H I J K L M N O P Q R S T U V W X Y Z # 

Alem De Nos Tabs (ver.1)

Cpm 22 Tabs
Rating:
0/5 (0 votes)
Alem De Nos lessons Tabs too difficult? Try these video lessons and learn fast
                OBS: os acordes com o * deve ser feiro assim:
  C#5*     B5*
E|-x-|   e|-x-|
B|-5-|   B|-3-|
G|-6-|   G|-4-|
D|-6-|   D|-4-|
A|-4-|   A|-2-|
E|---|   E|---|

Intro
e|---------------------------|---------------------------|
B|---------------------------|------5-----5-----5-----5--|
G|------6-----6-----6-----6--|----6-----6-----6-----6----|
D|----6-----6-----6-----6----|---------------------------|
A|--4-----2------------------|--4-----2------------------|
E|--------------2-----5------|--------------2-----5------|

Verso
Gtr.2
 |    “e é tudo horrível”     |   “te descubro sensível”   |

e|----------------------------|----------------------------|
B|----------------------------|----------------------------|
G|--14--13--14--13------------|---14--13-------------------|
D|---x--x----x--x-------------|----x---x--14--14-----------|
A|--12--12--12--12------------|---12--12--12--12-----------|
E|----------------------------|----------------------------|

      C#5  A5
  Eu sei
E5                                     C#5  A5
  Quem deu o primeiro passo foi você
E5
  Agora é questão de tempo
C#5                  E5         A5
  Quebro o seu mundo, e é tudo horrível
C#5                  E5            A5
  Quebro o seu mundo, te descubro sensível

Refrão (2x)
F#5             A5
  Já não nos resta (nos resta) 
       C#5*
  Mais nada (mais nada)
   B5*
  Além de nós dois

Verso
Gtr.2
 |    “e é tudo horrível”     |   “te descubro sensível”   |

e|----------------------------|----------------------------|
B|----------------------------|----------------------------|
G|--14--13--14--13------------|---14--13-------------------|
D|---x--x----x--x-------------|----x---x--14--14-----------|
A|--12--12--12--12------------|---12--12--12--12-----------|
E|----------------------------|----------------------------|

        C#5  A5
  Eu sei
E5                              C#5  A5
  Quem cometeu os erros foi você
E5
  E agora tudo faz sentido
C#5                 E5         A5
  Quebro o seu mundo, e é tudo horrível
C#5                  E5           A5
  Quebro o seu mundo, te descubro sensível

Refrão (3x)
F#5             A5
  Já não nos resta (nos resta) 
       C#5*
  Mais nada (mais nada)
   B5*
  Além de nós dois

Repete a Intro

Gtr.2
"Já não me importa, o tempo perdido"

e|-------------------------------------------------------|
B|-------------------------------------------------------|
G|--6-6-6...-9-9-9-9--11-11-11-11--9-9-9-9--11-11-11-11--|
D|--x-x-x...-x-x-x-x---x--x--x--x--x-x-x-x---x--x--x--x--|
A|--4-4-4...-7-7-7-7---9--9--9--9--7-7-7-7---9--9--9--9--|
E|-------------------------------------------------------|


"Eu sei, acho que agora me sinto mais vivo"

e|-----------------------------------------------------------|
B|-----------------------------------------------------------|
G|--6-6-6...-9-9-9-9--11-11-11-11--13-13-13-13--14-14-14-14--|
D|--x-x-x...-x-x-x-x---x--x--x--x---x--x--x--x---x--x--x--x--|
A|--4-4-4...-7-7-7-7---9--9--9--9--11-11-11-11--12-12-12-12--|
E|-----------------------------------------------------------|


"Talvez, sinto que hora de estarmos partindo daqui"

e|-------------------------------------------------------------------------------|
B|-------------------------------------------------------------------------------|
G|--13-13-13-13--14-14-14-14-14--13-13-13-13--11-11-11-11--9-9-9-9--11-11-11-11--|
D|--x-x-x-x-x-x---x--x--x--x--x---x--x--x--x---x--x--x--x--x-x-x-x---x--x--x--x--|
A|--11-11-11-11--12-12-12-12-12--11-11-11-11---9--9--9--9--7-7-7-7---9--9--9--9--|
E|-------------------------------------------------------------------------------|


"Já não nos resta mais nada além de nós dois"

e|--------------------------------------------------------------------|
B|--------------------------------------------------------------------|
G|--6-6-6...-9-9-9-9--11-11-11-11--13-13-13-13--14-14-14-14--9-9-9-9--|
D|--x-x-x...-x-x-x-x---x--x--x--x---x--x--x--x---x--x--x--x--x-x-x-x--|
A|--4-4-4...-7-7-7-7---9--9--9--9--11-11-11-11--12-12-12-12--7-7-7-7--|
E|--------------------------------------------------------------------|

C#5              A5      E5
  Já não me importa, o tempo perdido
      C#5            A5        E5
  Eu sei, acho que agora me sinto mais vivo
      C#5           A5       E5                   C#5
  Talvez, sinto que hora de estarmos partindo daqui
              A5         E5
  Já não nos resta mais nada além de nós dois

Final
Gtr.1

    C#5       A5      E5       C5
e|-------------------------------------|
B|-------------------------------------|
G|--6-6---------------9-9------5-5-----|
D|--6-6------7-7------9-9------5-5-----|
A|--4-4------7-7------7-7------3-3-----|
E|-----------5-5-----------------------|

Gtr.2

e|-------------------------------------|
B|-------------------------------------|
G|--6-6---------------9-9------5-5-----|
D|--6-6------7-7------9-9------5-5-----|
A|--4-4------7-7------7-7------3-3-----|
E|-----------5-5-----------------------|

Finalizam com isso
e|--------|
B|--------|
G|----6~--|
D|----6~--|
A|----4~--|
E|--5-----|
            

comments powered by Disqus
↑ Back to top | Cpm 22 Tabs for Alem De Nos. Lyrics for acoustic guitar and electric guitar. Tablatures and chords are parodies/interpretations of the original songs. You may use it for private study, scholarship, research or language learning purposes only