» » »

Covenant, Sulpher Feast Tabs (ver.1)

Artists:  A B C D E F G H I J K L M N O P Q R S T U V W X Y Z # 

Sulpher Feast Tabs (ver.1)

Covenant Tabs
 Rating:
4/5 (4 votes)
Sulpher Feast lessons Tabs too difficult? Try these video lessons and learn fast
                Covenant
Sulphur feast
Album:Nexus Polaris

I don't know if they play it like this but it sounds o.k.!!!
the song is incomplete, so if anyone knows it or any other covenant songs please ,

Acoustic intro
|-------------------------|
|-------------------------|
|-------4-------4------4--|
|-----5-------5------5----|
|--7----------------------|
|-----------7------6------|

MAIN RIFF
|---------------------------------------------|
|---------------------------------------------|
|---------------------------------------------|
|-9---------------------9---------------------|
|-7-----9-----8-----9---7-----8-----8-8/9/8/7-|
|---000-7-000-6-000-7-----000-7-000-6-6/7/6/5-|

|--------------------------------------------------|
|--------------------------------------------------|
|----0---------------------------0-----------------|
|----2---------------------------2-----------------|
|-2-----2-4-5-----5-----5--5-4-2---2-4-9--7-7--7-7-|
|-0-----0-2-3-333-3-333-3--3-2-0---0-2-7--5-5--5-5-|

SOLO RIFF
|------------------|----------------------------------------|
|------------------|----------------------------------------|
|------------------|----------------------------------------|
|-9---------8-7-10-|-9---------8-7-8-12-------------11-10-9-|
|-7-7-7-7-7-6-5--8-|-7-7-7-7-7-6-5-6-10-10-10-10-10-9---8-7-|
|------------------|----------------------------------------|

              FRIST ENDING      SECOND ENDING
|-----------|-----------------|------------------|
|-----------|-----------------|------------------|
|-----------|-----------------|------------------|
|-11-10-9-7-|-----7-----7-----|-7-7-7-7--8-8-8-8-|
|-9--8--7-5-|-555-5-555-5-----|-5-5-5-5--6-6-6-6-|
|-----------|-----------------|------------------|

|---------------------------------------------------------------------|
|---------------------------------------------------------------------|
|---------------------------------------------------------------------|
|-----------------------9-9-9-9-------------------5-----5-----7-----7-|
|-----------------------7-7-7-7-------------------3-333-3-333-5-555-5-|
|-0-0-0-0-0-0-0-0-0-0-0---------0-0-0-0-0-0-0-0-0---------------------|
  . . . . . . . . . . .         . . . . . . . . .

 OUTRO
|------------|
|------------|
|------------|
|-9----------|
|-7-9-8-5-2--|
|---7-6-3-0--|
            
Submit corrections

comments powered by Disqus
↑ Back to top | Covenant Tabs for Sulpher Feast. Lyrics for acoustic guitar and electric guitar. Tablatures and chords are parodies/interpretations of the original songs. You may use it for private study, scholarship, research or language learning purposes only