» » »

Covenant, Bringer Of The Sixth Sun Tabs (ver.1)

Artists:  A B C D E F G H I J K L M N O P Q R S T U V W X Y Z # 

Bringer Of The Sixth Sun Tabs (ver.1)

Covenant Tabs
 Rating:
4.2/5 (5 votes)
Bringer Of The Sixth Sun lessons Tabs too difficult? Try these video lessons and learn fast
1
                Written by Covenant
Taken from Nexus Polaris

Intro --Rhythm Figure 1
e-||-----------------------------------------------------------|
B-||-----------------------------------------------------------|
G-||.--------9--12-11-9----------------------------------------|
D-||.------9------------12-10-9--------------------------------|
A-||--7-10----------------------12-10-9------------------------|
E-||------------------------------------12-10-9~~~~------------|
                       
e-||----------------------------------------------------------||4x
B-||----------------------------------------------------------||
G-||---------------------------------------------------------.||
D-||------7-9--(9-9-9)--7-9-7--------------------------------.||
A-||----7--------------------10--(10-10-10)--9-10-9~~~--------||
E-||--8-------------------------------------------------------||

    Rhythm Figure 2
e-||-----------------------------------------------------------|
B-||-----------------------------------------------------------|
G-||.----------------------------------------------------------|
D-||.----------------------------------------------------------|
A-||--10--(10-10-10)--9-10~~~--7--(7-7-7)--7-9-10~~~-----------|
E-||-----------------------------------------------------------|

e-||-----------------------------------------------------------|
B-||-----------------------------------------------------------|
G-||-----------------------------------------------------------|
D-||--7--(7-7-7)-----------------------------------------------|
A-||--------------10--(10-10-10)--9--(9-9-9)-------------------|
E-||-------------------------------------------11--(11-11-11)--|

e-||-----------------------------------------------------------|
B-||-----------------------------------------------------------|
G-||-----------------------------------------------------------|
D-||-----------------------------------------------------------|
A-||--10--(10-10-10)--9-10~~~--7--(7-7-7)--7-9-10~~~-----------|
E-||-----------------------------------------------------------|

e-||----------------------------------------------------------||3x
B-||----------------------------------------------------------||
G-||-----9---------------------------------------------------.||
D-||--10---10-----10-----------------------------------------.||
A-||----------12-----12-9--12-9-------------------------------||
E-||-----------------------------11-12~~~---------------------||

    1st Verse --Verse Riff --Rhyth figure 3
e-||-----------------------------------------------------------|
B-||-----------------------------------------------------------|
G-||-----------------------------------------------------------|
D-||--9-9--9-9-------------------9-9--9-9----------------------|
A-||--7-7--7-7---9-9---9-9-------7-7--7-7---9-9---9-9----------|
E-||--0-0--0-0---7-7---7-7-------0-0--0-0---7-7---7-7----------|
    I drank a gobblet of fire. I cut out the prophts tounge.

e-||-----------------------------------------------------------|
B-||-----------------------------------------------------------|
G-||-----------------------------------------------------------|
D-||-----------------------------------------------------------|
A-||----7-10---7-10---7-10---7-10---7-10---7-10---7-10---7-10--|
E-||--8------8------8------8------6------6------6------6-------|
       But   still   the     sun   refused  to move.

e-||-----------------------------------------------------------|
B-||-----------------------------------------------------------|
G-||-----------------------------------------------------------|
D-||-------------------------9-9----9-9------------------------|
A-||--9-9--9-9-----6-9-6~~~--7-7----7-7-------9-9---9-9--------|
E-||--7-7--7-7---7-----------0-0----0-0-------7-7---7-7--------|
                            I tore a hole in the web of sanity.
   
e-||-----------------------------------------------------------|
B-||-----------------------------------------------------------|
G-||-----------------------------------------------------------|
D-||--9-9----9-9-----------------------------------------------|
A-||--7-7----7-7----9-9-----9-9------7-10---7-10---7-10---7-10-|
E-||--0-0----0-0----7-7-----7-7----8------8------8------8------|
    The very fabric of life itself.    But still this flesh
  
e-||-----------------------------------------------------------|
B-||-----------------------------------------------------------|
G-||-----------------------------------------------------------|
D-||-----------------------------------------------------------|
A-||----7-10---7-10---7-10---7-10---9--9--9--9---------6-9-6---|
E-||--6------6------6------6--------7--7--7--7--7-(7-7)--------|
    refused to burn

|Now its     01:16, and you'll just play the Verse riff again.      |
|And than at 01:43, you'll play "Rhytm Figure 1" (Intro) 4 times.   |
|                                                                   | 
|At 02:04 Nagash sings :"What a humble vision.                      |  
|                        To forever dwell by the grace of the sun." |
|                                                                   | 
|You'll play "Rhythm Figure 2" after that                           | 

3rd and 4th Verses
e-||-----------------------------------------------------------|
B-||-----------------------------------------------------------|
G-||-----------------------------------------------------------|
D-||--9-9---9-9------------------------------------------------|
A-||--7-7---7-7----9--9---9--9----------7-7---7-7--------------|
E-||--0-0---0-0----7--7---7--7----------0-0---0-0--------------|
    I gathered the moon and the stars. In my little
 
e-||-----------------------------------------------------------|
B-||-----------------------------------------------------------|
G-||-----------------------------------------------------------|
D-||-----------------------------------------------------------|
A-||--9-9----9-9-------------7-10---7-10---7-10---7-10---------|
E-||--7-7----7-7-----------8------8------8------8--------------|
    pouch of planets.          The renesance of 

e-||-----------------------------------------------------------|
B-||-----------------------------------------------------------|
G-||-----------------------------------------------------------|
D-||-----------------------------------------------------------|
A-||----7-10---7-10---7-10---7-10----9-9--9-9----6-9-6~~~~-----|
E-||--6------6------6------6---------7-7--7-7--7---------------|
          astral     flesh.

e-||-----------------------------------------------------------|
B-||-----------------------------------------------------------|
G-||-----------------------------------------------------------|
D-||----9--9----9--9--------------------------------9-9----9-9-|
A-||----7--7----7--7------------9-9----9-9----------7-7----7-7-|
E-||----0--0----0--0------------7-7----7-7----------0-0----0-0-|
    Dripping and drewling with universal thirst.  Equelibrium

e-||-----------------------------------------------------------|
B-||-----------------------------------------------------------|
G-||-----------------------------------------------------------|
D-||-----------------------------------------------------------|
A-||--9-9---9-9-------7-10---7-10---7-10---7-10----------------|
E-||--7-7---7-7-----8------8------8------8---------------------|
    going under.          In such an idle

e-||-----------------------------------------------------------|
B-||-----------------------------------------------------------|
G-||-----------------------------------------------------------|
D-||-----------------------------------------------------------|
A-||----7-10---7-10---7-10---7-10---9-9--9-9------------6-9-6--|
E-||--6------6------6------6--------7-7--7-7--7-(7-7-7)--------|
           state of death.

    Rhythm figure 4 --02:52
e-||-----------------------------------------------------------|
B-||-----------------------------------------------------------|
G-||.----------------------------------------------------------|
D-||.-------------7-9-------------7-9--------------------------|
A-||--10-10-10-10-----10-10-10-10------9-9-9-9-9-9---10-9~~~~--|
E-||-----------------------------------------------------------|
        (Sowing the seeds of...

e-||----------------------------------------------------------||
B-||----------------------------------------------------------||
G-||---------------------------------------------------------.||
D-||--------------7-9-------------7-9------------------------.||
A-||--10-10-10-10-----10-10-10-10------9-9-9-9-9-9--10-9------||
E-||-----------------------------------------------------11-7-||
         a new dimention)

Solo Riff 1 --03:20  (Same Riff During Synth-Solo)
e-||----------------------------------------------------------|
B-||----------------------------------------------------------|
G-||.---------------------------------------------------------|
D-||.-9-9-9-9-9-9-9-9-----------------------------------------|
A-||--7-7-7-7-7-7-7-7-9-9-9-9-9-9-10-10-10-10-10-9-9-9-9-9-9--|
E-||------------------7-7-7-7-7-7--8--8--8--8--8-7-7-7-7-7-7--|

e-||---------------------------------------------------------||
B-||---------------------------------------------------------||
G-||--------------------------------------------------------.||
D-||--9-9-9-9-9-9-9-9---------------------------------------.||
A-||--7-7-7-7-7-7-7-7-9-9-9-9-9-9-7-7-7-7-7-7-9-9-9-9-9-9----||
E-||------------------7-7-7-7-7-7-5-5-5-5-5-5-7-7-7-7-7-7----||

    Heavy Riff 1 --04:08
e-||---------------------------------------------------------|
B-||---------------------------------------------------------|
G-||.--------------------------------------------------------|
D-||.--------------------------------------------------------|
A-||--7-7-7-7-7-7-7-10-10-10-10--10-10-10--10-10-10----------|
E-||--0-0-0-0-0-0-0--8--8--8--8---8--8--8---8--8--8----------|

e-||---------------------------------------------------------|
B-||---------------------------------------------------------|
G-||---------------------------------------------------------|
D-||---------------------------------------------------------|
A-||--7-7-7-7-7-7-7---10----9-----9--------------------------|
E-||--0-0-0-0-0-0-0----8----7-----7--------------------------|

e-||------------------------------------------------------------||
B-||------------------------------------------------------------||
G-||-------------------------------------------------------[9]-.||
D-||------------------------------------------4-4-7-7-9-9------.||
A-||-7-7-7-7-7-10-10-10-10-10--3-3-3-3-3-3-3--2-2-5-5-7-7-------||
E-||-0-0-0-0-0--8--8--8--8--8--1-1-1-1-1-1-1--------------------||

Verse 5, with Heavy Riff 1

I am the conqueror in his pretty paradise.
Spinning around in a garden of lush blooming death,
Point at the sun, and I will be there.
And the angles, scrattered and bleeding.
Will be the fundament of my empire.

|                                           |
| Solo Riff 1 04:58 (Same Riff as on 03:20) |
|                                           |

    Guitar Solo --05:23
e-||-----------------------------------------------------------|
B-||---------------------13-12-10-12~~~------------------------|
G-||--9~~~--9-11-12-11-9---------------------------------------|
D-||---------------------10--9--7--9~~~------------------------|
A-||--7~~~--7--9-10--9-7---------------------------------------|
E-||-----------------------------------------------------------|

e-||-----------------------------------------------------------|
B-||--------------------7--8-10---8b-7~~~---8-7----7~~~~-------|
G-||----------------7-9-------------------------9--------------|
D-||---------7-9-10--------------------------------------------|
A-||--7-9-10---------------------------------------------------|
E-||-----------------------------------------------------------|
 
e-||--------10-8-7----------10-8-7-------------------|
B-||-----7---------8~~----7---------7~~--------------|
G-||--9-----------------9----------------------------|
D-||-------------------------------------------------|
A-||-------------------------------------------------|
E-||-------------------------------------------------|

e-||-------------------------------------------------|
B-||-------------------------------------------------|
G-||-------------------------------------------------|
D-||--12s10-10-10s9-9-9------------------------------|
A-||--------------------12--9-10-9~~~----------------|
E-||-------------------------------------------------|

e-||--10-8-7-8-7----7--------------------------------|
B-||-------------10---10-8-10-8-7-8-7---8~~-7~~------|
G-||----------------------------------9--------------|
D-||-------------------------------------------------|
A-||-------------------------------------------------|
E-||-------------------------------------------------|

e-||---------------------------7-8-10-7~~~~----------|
B-||--------------------7-8-10-----------------------|
G-||----------------7-9------------------------------|
D-||---------7-9-10----------------------------------|
A-||--7-9-10-----------------------------------------|
E-||-------------------------------------------------|

During Solo Nagash sings:"And admist all this forlorn beauty.
                          I still laughed at the end." 
Heavy Riff 2 05:50
e-||-------------------------------------------||
B-||-------------------------------------------||
G-||.-----------------------------------------.||
D-||.-9-9-9-9-9--7-7-7-7-7--5-5-5-5-5--4-7-9--.||
A-||--7-7-7-7-7--5-5-5-5-5--3-3-3-3-3--2-5-7---||
E-||-------------------------------------------||

Solo at the end --I'm not so sure about this one, it might be
all wrong. But, give it try.
e-||-----------------------------------------------------------|
B-||--7b-7b--8-7-5-7-5----8-7-5---5~~~~------------------------|
G-||----------------------------7------------------------------|
D-||-----------------------------------------------------------|
A-||-----------------------------------------------------------|
E-||-----------------------------------------------------------|

Kristian Klock, Norway 2001
            
Submit corrections

comments powered by Disqus
↑ Back to top | Covenant Tabs for Bringer Of The Sixth Sun. Lyrics for acoustic guitar and electric guitar. 1 Tablatures and chords are parodies/interpretations of the original songs. You may use it for private study, scholarship, research or language learning purposes only