>
 >
Bizarre Cosmic Industries

Bizarre Cosmic Industries Guitar Tabs

Covenant - Bizarre Cosmic Industries chords, tabs, tablatures, lyrics

Guitar lessons | Add/correct | Request | Top 50 tabs Artists:  A B C D E F G H I J K L M N O P Q R S T U V W X Y Z 0-9

Bizarre Cosmic Industries Guitar Tabs – Covenant

CD, Sheet music, Poster

Do you like Bizarre Cosmic Industries? Share with your friends now
Tabs
"Bizzare Cosmic Industries"
 

00:00
Riff1: Play 2 times
  !2nd & 4th time play the parenthese instead!
e|-------------------------------------------------|
B|-------------------------------------------------|
G|o2--2--------2--2--------------------------------|
D|o2--2--2-2-2-2--2--2-2-2-3--3--------3--3--------|
A|-0--0--0-0-0-0--0--0-0-0-3--3--3-3-3-3--3--3-3-3-|
E|----------------------(0)1--1--1-1-1-1--1--1-1-1-|
         PM- -|      PM- -|      PM- -|      PM- -|
 __________________________________________
|1					             |

|------------------------------------------|
|------------------------------------------|
|-4--4--------4--4------------------------o|
|-4--4--4-4-4-4--4--4-4-4-2--2--2--2--2--2o|
|-2--2--2-2-2-2--2--2-2-2-2--2--2--2--2--2-|
|-------------------------0--0--0--0--0--0-|
        PM- -|      PM- - - - - - - - - - |
 ________________________________________
|2				                 |

|----------------------------------------|
|----------------------------------------|
|-4--4--4--4--4--4--------------------9-o|
|-4--4--4--4--4--4--2-2---------2-2---9-o|
|-2--2--2--2--2--2--2-2-2-2-2-2-2-2-2-7--|
|-------------------0-0-0-0-0-0-0-0-0----|
  PM- - - - - - - |     PM- - -|    PM


00:28
RIFF2: Play 4 times
|------------------------------------------------|
|------------------------------------------------|
|o--9-----10------9-----7------9-----10------9---|
|o-10-----12-----10-----9-----10-----12-----10---|
|-----0-0----0-0----0-0---0-0----0-0----0-0------|
|------------------------------------------------|
      PM-|   PM-|   PM-|  PM-|   PM-|   PM-|

|----------------------------------------------------|
|----------------------------------------------------|
|---------------------------------------------------o|
|---9-----10-----12------9-----2-----2-----3-----3--o|
|--11-----12-----14-----11-----0-000-0-000-1-111-1---|
|-----0-0----0-0----0-0----0-0-----------------------|
      PM-|   PM-|   PM-|   PM-|  PM-|  PM-|  PM-|

00:56
RIFF3: Play 4 times
 Gtr1:
|-------------------------------------------------|
|-------------------------------------------------|
|o------------------2-2-2-------------------------|
|o------2-2-2-3-3-3-------------------2-2-2-5-5-5-|
|-3-3-3-------------------2-2-2-5-5-5-------------|
|-------------------------------------------------|
| PM- - - - - - - - - - - - - - - - - - - - - - -|
|
|Gtr2:
|-------------------------------------------------|
|-------------------------------------------------|
|o------------------------------------------------|
|o------------------------------------------2-2-2-|
|-------------5-5-5-8-8-8-------2-2-2-3-3-3-------|
|-5-5-5-8-8-8-------------3-3-3-------------------|
  PM- - - - - - - - - - - - - - - - - - - - - - -|

|---------------------------------------------|
|---------------------------------------------|
|--------------------------------------------o|
|-------------------------6------------------o|
|-------------5-5-5-8-8-8----7----------------|
|-5-5-5-8-8-8-------------------7--4----0-0-0-|
| PM- - - - - - - - - - -|              PM- -|
|
|
|---------------------------------------------|
|---------------------------------------------|
|--------------------------------------------o|
|-------------------0-0-0-2------------------o|
|-------0-0-0-1-1-1----------2----------------|
|-1-1-1-------------------------4--0----0-0-0-|
  PM- - - - - - - - - - -|              PM- -|


01:24
Piano, bass, vokals & drums
02:54
RIFF4: Play 4 times
|-------------------------------------------------|
|-------------------------------------------------|
|o-----------------------------------------------o|
|o-----------------------------------------------o|
|-0-7-0-5-7-0-5-8-0-5-8-0-2-5-0-2-5-0-8-0-8-7-5---|
|-----------------------------------------------8-|
  PM- - - - - - - - - - - - - - - - -|  PM- - - -|

03:08
Solo: Play RIFF4 4 times
03:23
RIFF2: Play 4 times
03:51
RIFF5: I haven't figured out the second part yet...
|--------------------------------------------------|
|--------------------------------------------------|
|--------------------------------------------------|
|--------------------------------------------6---9-|
|-0--3--2--5--3--7--5---8--7-7-7-5---7-5-8-7-------|
|-----gtr2:7--5--8--7--10----------8---------------|

|--------------------------|
|--------------------------|
|--------7----9-7-10-9-----|
|-7-10-9---10----------6---|
|--------------------------|
|--------------------------|

04:19
RIFF1: Play 2 times
04:47
RIFF6: Play once
6/8:
|-------------------------------------------------|
|-------------------------------------------------|
|o2-------2---7-------7---------------5-------5---|
|o2-2-2-2-2-2-7-7-7-7-7-7-5-------5---5-5-5-5-5-5-|
|-0-0-0-0-0-0-5-5-5-5-5-5-5-5-5-5-5-5-3-3-3-3-3-3-|
|-------------------------3-3-3-3-3-3-------------|
     PM- -|  PM  PM- -|  PM  PM- -|  PM  PM- -|  PM



          			   ___________________
			        |1.	                |    

|-------------------------|-------------------|
|-------------------------|-------------------|
|-------------3-------3---|------------------o|
|-3-------3---3-3-3-3-3-3-|------------------o|
|-3-3-3-3-3-3-1-1-1-1-1-1-|----7--------8-----|
|-1-1-1-1-1-1-------------|-0-----8--5-----4--|
     PM- -|  PM  PM- -|  PM

 ________________
|2.	           |

|---------------|
|---------------|
|---------------|
|----------2----|
|-------2-------|
|-0--4----------|

05:02
RIFF7: Play  times
|-------------------------------------------------|
|-------------------------------------------------|
|-------------------------------------------------|
|-------------------------------------------------|
|-0-0-0-0-0-0-0-0-0-0-0-0-------------------------|
|-------------------------0-0-0-0-0-0-0-0-0-0-0-0-|
  PM- - - - - - - - - - - - - - - - - - - - - - -|

|-------------------------------------------------|
|-------------------------------------------------|
|-------------------------------------------------|
|----------------------------(7)------------------|
|-------------------------0-0-0-0-0-0-0-0-0-0-0-0-|
|-0-0-0-0-0-0-0-0-0-0-0-0--------(4)-(5)----------|
  PM- - - - - - - - - - - - - - - - - - - - - - -|
 
05:33
RIFF6: Play once





Comments


Popular Covenant tabs & chords
Invisible & Silent Chords
Invisible & Silent 1 Chords
Bringer Of The Sixth Sun Tabs
Chariots Of Thunder Tabs
Chariots Of Thunder 1 Tabs
Dragonheart Tabs
The Chasm 1 Tabs
The Sulphur Feast Tabs
Towards The Crown Of Nights Tabs
The World Is Growing Loud Ukulele


Song lyrics



↑ Back to top | Tablatures and chords are parodies/interpretations of the original songs. You may use it for private study, scholarship, research or language learning purposes only
© 2014 AZChords.com Contact us | Privacy policy | DMCA | Add/correct tabs | Request tabs | Top 50 tabs