» » »

Zeppelin Song Tabs (ver.1)

Artists:  A B C D E F G H I J K L M N O P Q R S T U V W X Y Z # 

Zeppelin Song Tabs (ver.1)

Courtney Love
Rating:
3/5 (2 votes)

Hard to play? Try these video lessons and learn fast.
                
Verse w/pm
e|-----------------------|
b|-----------------------|
g|-----------------------|
d|--3--7--2--8--3--7--8--|
a|--3--7--2--8--3--7--8--|
E|--1--5--0--6--1--5--6--|

Chorus
e|--------------------------|
b|--------------------------|
g|--------------------------|
d|--10--8--10--8--10--8--7--|
a|--10--8--10--8--10--8--7--|
E|---8--6---8--6---8--6--5--|

Outro
e|-------------------------------------------------------|
b|-------------------------------------------------------|
g|-------------------------------------------------------|
d|--10--8--10--8--10--8--10--8--10--8--10--8--10--8--10--|
a|--10--8--10--8--10--8--10--8--10--8--10--8--10--8--10--|
E|---8--6---8--6---8--6---8--6---8--6---8--6---8--6---8--|

E|-------------------------------------------|
B|-------------------------------------------|
G|-------------------------------------------|
D|--8--10--8--10--8--10--8--10--8--10--8--7--|
A|--8--10--8--10--8--10--8--10--8--10--8--7--|
E|--6---8--6---8--6---8--6---8--6---8--6--5--|
            
Hard to play? Try these video lessons and learn fast. | Correct




comments powered by Disqus
↑ Back to top | Tablatures and chords are parodies/interpretations of the original songs. You may use it for private study, scholarship, research or language learning purposes only