» » »

Courtney Love, Never Go Hungry Again Tabs (ver.1)

Artists:  A B C D E F G H I J K L M N O P Q R S T U V W X Y Z # 

Never Go Hungry Again Tabs (ver.1)

Courtney Love Tabs
 Rating:
4/5 (4 votes)
Never Go Hungry Again lessons Tabs too difficult? Try these video lessons and learn fast
                
---------------------------------------------------------------------------------
---------------------------------------------------------------------------------

Tuning: Normal
Pretty Fast



INTRO:
------------------------------------------


       C
 
   - - 2 + 3 + 4 + |

e|-----0-----------|
B|-----1-----------|
G|-----0-------0-0-|
D|-----2-------2-2-|
A|-----3-------3-3-|
E|-----------------|

         it's a long way...


   G                                   D                         C(G)

   1 + 2 + 3 + 4 + | 1 + 2 + 3 + 4 + | 1 + 2 + 3 + 4 + | 1 + 2 + 3 + 4 + |

e|-----3-------3---|-----------------|-----2-------2---|---------0-------|  ||
B|-----3-------3---|-----------------|-3---3---3-3-3---|-3-3-3---1-0-----| O||
G|-----0-------0---|-----------------|-2---2---2-2-2---|-2-2-2---2-0-----|  || X5
D|-0---0---0-0-0---|-0-0-0---0-0-0---|-0---0---0-0-0---|-0-0-0---0-0-----|  ||
A|-2---2---2-2-2---|-2-2-2---2-2-2---|-----0-------0---|---------3-------| O||
E|-3---3---3-3-3---|-3-3-3---3-3-3---|-----------------|-----------------|  ||

1. back               from where i've fallen in                  it's a very...
2. hard fall          it's a very cruel town                     my dress is...
3. torn               and i've got no jewels                     and i'm hungry...
4. for                life a little less cruel                   some dignity...
5.                    not too much sorrow                        just a little bit...


   G                                   D
 
   1 + 2 + 3 + 4 + | 1 + 2 + 3 + 4 + | 1 + 2 + 3 + 4 + | 1 + 2 + 3 + 4 + |

e|-----3-------3---|-----------------|-----2---2-2-2---|-2-2-2-2-2-2-2-2-|
B|-----3-------3---|-----------------|-3---3---3-3-3---|-3-3-3-3-3-3-3-3-|
G|-----0-------0---|-----------------|-2---2---2-2-2---|-2-2-2-2-2-2-2-2-|
D|-0---0---0-0-0---|-0-0-0---0-0-0---|-0---0---0-0-0---|-0-0-0-0-0-0-0-0-|
A|-2---2---2-2-2---|-2-2-2---2-2-2---|-----0-------0---|-0-0-0-0-0-0-0-0-|
E|-3---3---3-3-3---|-3-3-3---3-3-3---|-----------------|-----------------|

  of hope            hold out for tomorrowwwww





CHOURS:
------------------------------------------

   c                 G                 D                 G
 
   1 + 2 + 3 + 4 + | 1 + 2 + 3 + 4 + | 1 + 2 + 3 + 4 + | 1 + 2 + 3 + 4 + |

e|-0---0---0-0-0-0-|-3---3---3-3-3-3-|-2---2---2-2-2-2-|-3---3---3-3-3-3-|  ||
B|-1---1---1-1-1-1-|-3---3---3-3-3-3-|-3---3---3-3-3-3-|-3---3---3-3-3-3-| O||
G|-0---0---0-0-0-0-|-0---0---0-0-0-0-|-2---2---2-2-2-2-|-0---0---0-0-0-0-|  || X2
D|-2---2---2-2-2-2-|-0---0---0-0-0-0-|-0---0---0-0-0-0-|-0---0---0-0-0-0-|  ||
A|-3---3---3-3-3-3-|-2---2---2-2-2-2-|-0---0---0-0-0-0-|-2---2---2-2-2-2-| O||
E|-0---0---0-0-0-0-|-3---3---3-3-3-3-|-----------------|-3---3---3-3-3-3-|  ||
  
1. oh    i   don't   care   what  it   takes     my      friend   i  will
2. never     go      hungry       go   hungry        again


   c                 G                 D                 A
 
   1 + 2 + 3 + 4 + | 1 + 2 + 3 + 4 + | 1 + 2 + 3 + 4 + | 1 + 2 + 3 + 4 + |

e|-0---0---0-0-0-0-|-3---3---3-3-3-3-|-2---2---2-2-2-2-|-0---0---0-0-0-0-|
B|-1---1---1-1-1-1-|-3---3---3-3-3-3-|-3---3---3-3-3-3-|-2---2---2-2-2-2-|
G|-0---0---0-0-0-0-|-0---0---0-0-0-0-|-2---2---2-2-2-2-|-2---2---2-2-2-2-|
D|-2---2---2-2-2-2-|-0---0---0-0-0-0-|-0---0---0-0-0-0-|-2---2---2-2-2-2-|
A|-3---3---3-3-3-3-|-2---2---2-2-2-2-|-0---0---0-0-0-0-|-0---0---0-0-0-0-|
E|-0---0---0-0-0-0-|-3---3---3-3-3-3-|-----------------|-----------------|
  
   oh and  i don't   care   what   i   have     to       defend   i  will


   c                 G                 D                 G       C
 
   1 + 2 + 3 + 4 + | 1 + 2 + 3 + 4 + | 1 + 2 + 3 + 4 + | 1 + 2 + 3 + 4 + |

e|-0---0---0-0-0-0-|-3---3---3-3-3-3-|-2---2---2-2-2-2-|-3---3---0---0---|
B|-1---1---1-1-1-1-|-3---3---3-3-3-3-|-3---3---3-3-3-3-|-3---3---1---1---|
G|-0---0---0-0-0-0-|-0---0---0-0-0-0-|-2---2---2-2-2-2-|-0---0---0---0---|
D|-2---2---2-2-2-2-|-0---0---0-0-0-0-|-0---0---0-0-0-0-|-0---0---2---2---|
A|-3---3---3-3-3-3-|-2---2---2-2-2-2-|-0---0---0-0-0-0-|-2---2---3---3---|
E|-0---0---0-0-0-0-|-3---3---3-3-3-3-|-----------------|-3---3-----------|
  
   never     go      hungry       go   hungry        again





OUTRO:
------------------------------------------

   c                 G                 D                 G
 
   1 + 2 + 3 + 4 + | 1 + 2 + 3 + 4 + | 1 + 2 + 3 + 4 + | 1 + 2 + 3 + 4 + |

e|-0---0---0-0-0-0-|-3---3---3-3-3-3-|-2---------------|-3---------------|
B|-1---1---1-1-1-1-|-3---3---3-3-3-3-|-3---------------|-3---------------|
G|-0---0---0-0-0-0-|-0---0---0-0-0-0-|-2---------------|-0---------------|
D|-2---2---2-2-2-2-|-0---0---0-0-0-0-|-0---------------|-0---------------|
A|-3---3---3-3-3-3-|-2---2---2-2-2-2-|-0---------------|-2---------------|
E|-0---0---0-0-0-0-|-3---3---3-3-3-3-|-----------------|-3---------------|
  
and we owe each other nothing and there's no one left here to offend


   c                 G                 D                 G ~ ~ ~ ~ ~ ~ ~
 
   1 + 2 + 3 + 4 + | 1 + 2 + 3 + 4 + | 1 + 2 + 3 + 4 + | 1 + 2 + 3 + 4 + |

e|-0---------------|-3---------------|-2---------------|-3---------------|
B|-1---------------|-3---------------|-3---------------|-3---------------|
G|-0---------------|-0---------------|-2---------------|-0---------------|
D|-2---------------|-0---------------|-0---------------|-0---------------|
A|-3---------------|-2---------------|-0---------------|-2---------------|
E|-0---------------|-3---------------|-----------------|-3---------------|
  
   oh and  i don't   care   what   i   have     to       defend   i  will






===========================================================================

--------------------------------
LYRICS:
--------------------------------


VERSE I

it's a long way back
it's a very hard fall
it's a very cruel town
and my dress is torn
and i've got no jewels
and i'm hungry for
life a little less cruel
some dignity
not too much sorrow
just a little bit of hope
hold out for tomorrow



CHORUS I

oh i don't care
what it takes my friend
i will never go hungry
go hungry again
oh and i don't care
what i have to defend
i will never go hungry
go hungry again



VERSE II

it's a long ride home
my head is bowed
and you're no comfort
to me now
and it's fully loaded
and it's set on stun
at least i know
that i have won
and my wigs on crooked
and i've got no shoes
i run back and forth
and i wait for you



CHORUS II

oh i don't care
what it takes my friends
i will never go hungry
go hungry again

oh and i don't care
what i have to pretend
i will never go hungry
go hungry again



VERSE III

and out of it all
i have survived
i am alive
cities crushing spirit
survive this mess you made
oh god can you hear us
can my salvation beg?
and it's time for me, yeah
to take a stand
and it's time for me, yeah
to be a mannnnnnnn



CHORUS III

oh i don't care
what it takes my friends
i will never go hungry
go hungry again

oh and i don't care
what i have to pretend
i will never go hungry
go hungry again



CHOURS IV

and the phoenix she rises
she is sure to descend
she will never go hungry
go hungry again

and you're looking to me
more and more like a godsend
we will never go hungry
go hungry again



OUTRO

and we owe each other nothing
there's no one left here to offend
we will never go hungry
go hungry againnnn
            
Submit corrections

comments powered by Disqus
↑ Back to top | Courtney Love Tabs for Never Go Hungry Again. Lyrics for acoustic guitar and electric guitar. Tablatures and chords are parodies/interpretations of the original songs. You may use it for private study, scholarship, research or language learning purposes only