>
 >
Mono

Mono Guitar Tabs

Courtney Love - Mono chords, tabs, tablatures, lyrics

Guitar lessons | Add/correct | Request | Top 50 tabs Artists:  A B C D E F G H I J K L M N O P Q R S T U V W X Y Z 0-9

Mono Guitar Tabs – Courtney Love

CD, Sheet music, Poster

Do you like Mono? Share with your friends now
Bass TabsChordsTabsTabs v2Ukulele
-------------------------------------------------------------------------------
                            Courtney Love-Mono
-------------------------------------------------------------------------------

Tuning:Standard

Okey cokey folks, theres two ways of playing the main riff, I'll include both
but basically ones a lower minor chord based one, and the other...well its all
high pitched...and at 1am on Valentines day
I'm tabbing Courtney Love...could be worse? Any probs feel free to email.


Intro/verse riff
e|---------------------------------------------------------------------------
B|---------------------------------------------------------------------------
G|-4-4------------7-7--------------------------------------------------------
D|-4-4--4-4--7-7--7-7--------------------------------------------------------
A|-2-2--4-4--7-7--5-5--------------------------------------------------------
E|------2-2--5-5-------------------------------------------------------------

Variation
e|---------------------------------------------------------------------------
B|---------------------------------------------------------------------------
G|-4-4-----------------------------------------------------------------------
D|-4-4--4-4--2-2---3-3-------------------------------------------------------
A|-2-2--4-4--2-2---3-3-------------------------------------------------------
E|------2-2--------1-1-------------------------------------------------------

OR Play:

Intro/Main riff 

G:-9--9-------------------12--12--12-12-12-12 
D:-9--9---9--9---12--12---12--12--12-12-12-12 
A:-7--7---9--9---12--12---10--10--10-10-10-10 
E:--------7--7---10--10---------------------- 

Variation 

G:-9--9----------7--7---------------- 
D:-9--9---9--9---7--7---5--5--5-5-5-5 
A:-7--7---9--9---5--5---5--5--5-5-5-5 
E:--------7--7----------3--3--3-3-3-3 



Pre Chorus "Well they say that rock is dead..." 

e:-------------------------------------------------------- 
B:-5--5--5-5-5-5--5-5-5--5-5-5/7--7--7-7-7-7--7-7-7--7-7-7 
G:-5--5--5-5-5-5--5-5-5--5-5-5/7--7--7-7-7-7--7-7-7--7-7-7 
D:-5--5--5-5-5-5--5-5-5--5-5-5/7--7--7-7-7-7--7-7-7--7-7-7 
A:-3--3--3-3-3-3--3-3-3--3-3-3/5--5--5-5-5-5--5-5-5--5-5-5 
E:-------------------------------------------------------- 

Chorus 

e:-------------------------------------------------------- 
B:-------------2--2-2-2--2-2-2-5--5--5-5-5-7--7-7-7--7-7-7 
G:-1--1--1-1-1-2--2-2-2--2-2-2-5--5--5-5-5-7--7-7-7--7-7-7 
D:-2--2--2-2-2-2--2-2-2--2-2-2-5--5--5-5-5-7--7-7-7--7-7-7 
A:-2--2--2-2-2-0--0-0-0--0-0-0-3--3--3-3-3-5--5-5-5--5-5-5 
E:-0--0--0-0-0-------------------------------------------- 

Chorus (Last repeat) 
Palm Mute************************* 
e:-------------------------------------------------------------- 
B:-------------2--2-2-2--2-2-2---------------------------------- 
G:-1--1--1-1-1-2--2-2-2--2-2-2---------------------------------- 
D:-2--2--2-2-2-2--2-2-2--2-2-2-555555555555555557777777777777777 
A:-2--2--2-2-2-0--0-0-0--0-0-0-333333333333333335555555555555555 
E:-0--0--0-0-0-------------------------------------------------- 

Break 

e:---------------------------------------------------- 
B:---------------------------------------------------- 
G:-4--4--------4--4----------------7--7--7--7--7-7-7-7 
D:-4--4--2--2--4--4--5--5--5-5-5-5-7--7--7--7--7-7-7-7 
A:-2--2--2--2--2--2--5--5--5-5-5-5-5--5--5--5--5-5-5-5 
E:-------0--0--------3--3--3-3-3-3-------------------- 

Break (Lead) 

Let Notes Ring Out 
e:-7~~~~~0~~~~~7~~~~~------7~~~~~~~10~~~~~~~~~~~~~~~~~ 
B:-------------------8~~~~~~~~~8~~~~~~~~~~~~~~~~~~~~~~ 
G:---------------------------------------------------- 

e:-7~~~~~0~~~~~7~~~~~------7~~~~~~~------------------- 
B:-------------------8~~~~~~~~~8~~~~~~~~~~~~~~~~~~~~~~ 
G:---------------------------------7~~~~~~~~~~~~~~~~~~ 



Break (Last Repeat) Palm Mute****** 
e:---------------------------------------------------- 
B:---------------------------------------------------- 
G:-4--4--------4--4----------------------------------- 
D:-4--4--2--2--4--4--5--5--5-5-5-5-7777777777777777--- 
A:-2--2--2--2--2--2--5--5--5-5-5-5-5555555555555555--- 
E:-------0--0--------3--3--3-3-3-3-------------------- 



Outro 
Palm Mute************************ 
e:-------------------------------------------------------------- 
B:-------------2--2-2-2--2-2-2---------------------------------- 
G:-1--1--1-1-1-2--2-2-2--2-2-2---------------------------------- 
D:-2--2--2-2-2-2--2-2-2--2-2-2-555555555555555557777777777777777 
A:-2--2--2-2-2-0--0-0-0--0-0-0-333333333333333335555555555555555 
E:-0--0--0-0-0-------------------------------------------------- 

Palm Mute*************************************** Let Ring Out 
e:-------------------------------------------------------------- 
B:-----------------(11's not 1's)------------------------------- 
G:-------------------------------------------------------------- 
D:-999999999999999911111111111111111111111111111111-2~~~~~~~~~~~ 
A:-77777777777777779 9 9 9 9 9 9 9 9 9 9 9 9 9 9 9 -2~~~~~~~~~~~ 
E:--------------------------------------------------0~~~~~~~~~~~ 

Structure 

Intro x4 (add some feedback) 
Main Riff/Variation x8 
Pre Chorus x2 
Chorus x1 
Chorus (Last Repeat) x1 
Main Riff/Variation x8 
Pre Chorus x2 
Chorus x3 
Chorus (Last Repeat) x1 
Break x4 
Break (Last Repeat) x1 
Intro x1 
Chorus x3 
Outro x1 



| /  slide up
| \  slide down
| h  hammer-on
| p  pull-off
| ~  vibrato
| +  harmonic
| x  Mute note
===============================================================================





Comments


Popular Courtney Love tabs & chords
Mono Bass Tabs
Almost Golden Chords
Pacific Coast Highway Chords
Uncool Chords
How Dirty Girls Get Clean Tabs
Life Despite God Tabs
Mono 1 Tabs
Never Go Hungry Again Tabs
Never Go Hungry Again Ukulele
Uncool Ukulele


Song lyrics



↑ Back to top | Tablatures and chords are parodies/interpretations of the original songs. You may use it for private study, scholarship, research or language learning purposes only
© 2014 AZChords.com Contact us | Privacy policy | DMCA | Add/correct tabs | Request tabs | Top 50 tabs